>
 >
Floods 2

Floods 2 Guitar Tabs

Pantera - Floods 2 chords, tabs, tablatures, lyrics

Guitar lessons | Add/correct | Request | Top 50 tabs Artists:  A B C D E F G H I J K L M N O P Q R S T U V W X Y Z 0-9

Floods 2 Guitar Tabs – Pantera

CD, Sheet music, Poster

Do you like Floods 2? Share with your friends now
Bass TabsTabsTabs v2Tabs v3Tabs v4
h     =   Hammer On
p     =   Pull Off
b     =   Bend
r     =   Release Bend
v     =   Vibrato
*     =   Trill
t     =    Right Hand tap
x     =   Muted Note (or Rake)
^     =   Harmonic
A^    =   Artificial Harmonic
/     =   Slide up
\     =   Slide Down
\/   =   Whammy Bar Dive and Back up

-----------0------------------0---------------------0-------------------------
--------6------6--------6--------6---------------6------6---------------------
-----7---------------------7--------7---------7------------8------------------
--9---------------8---------------------8--9----------------------------------
  Riff A                                           

--------------------------0---------0---0-0--|--0---0-0-0---0--0-0-0--0-0-----
--------------------------0---------0---0-0--|--0---0-0-0---0--0-0-0--0-0-----
--------------------------1---------1---1-1--|--8---8-8-8---0--0-0-0--0-0-----
-------------2--------0---2---------2---2-2--|--6---6-6-6---5--5-5-5--5-5-----
----------2--------2------2---------2---2-2--|--4---4-4-4---2--2-2-2--2-2-----
--0---/4--------3---------0---------0---0-0--|--------------------------------
            
--0---0---0---0---0---0----0----|--0------0-----0----0---0---0----0----0------
--0---0---0---0---0---0----0----|--0------0-----0----0---0---0----0----0------
--11--11--11--11--11--11---13---|--11-----11----13---13--13--13---14----------
--9---9---9---9---9---9----11---|--9------9-----11---11--11--11---11----------
--7---7---7---7---7---7----9----|--7------7-----9----9---9---9----9-----------
--------------------------------|---------------------------------------------
  1st Ending                      2nd Ending                                  

-------------------------------------|----------------------------------------
-------------------------------------|----------------------------------------
-------------------------------------|----------------------------------------
---4\/-4\/-4\/-4-x-x-x-5--4--x---7b--|--2\/-2\/-2\/-2\/-2\/-2\/--2-2--5b------
---4\/-4\/-4\/-4-x-x-x-5--4--x---7b--|--2\/-2\/-2\/-2\/-2\/-2\/--2-2--5b------
---2\/-2\/-2\/-2-x-x-x-3--2--x---5b--|--0\/-0\/-0\/-0\/-0\/-0\/--0-0--3b------
 Dip whammy bar down a little and bring it back up on each chord with a \/    

-----------------------------------------------------0------------------------
-------------0------------0h1-----------------0------0------------------------
----------8------8-------------0-----------8-----8---0------------------------
-------6---------------2----------------6------------5------------------------
----4---------------0----------------4---------------2------------------------
 Play this right before the solo                                              

-------------------------------------------|----------------------------------
-------------------------------------------|----------------------------------
----------8------8h9--8v--6h8p6p4-6v-------|----------------------------------
-------6------6----------------------------|-----------9-----9/14v-13v-11\----
----4--------------------------------------|-------7------7-------------------
-----------------------------------------0-|--/5------------------------------
   THE SOLO!!!                    A^                            A^  A^  A^    

------------------------------------------|-----------------------------------
------------------------------------------|-----------------------------------
------------------------------------------|--------6-----6b--6--4h6p4p2-4-4b--
----------6-----6h7-6v----4h6p4p2-4v------|-----4-----4-----------------------
-------4-----4----------------------------|--2--------------------------------
----2-------------------------------------|-----------------------------------
                                                   A^    A^               A^  

---------------------------------|--------------------------------------------
---------------------------------|--------------------------------------------
------------8-----8/9/11v--13br--|--------------------------------------------
---------6-----6-----------------|--------9-----9/13--14--13br--b13r--11v-----
--2-2/4--------------------------|-----7-----7--------------------------------
---------------------------------|--5-----------------------------------------
                            A^                            A^      A^   A^     

----------------------------------|-------------------------------------------
----------------------------------|-------------------------------------------
----------------------------------|--------6-----6b--6---4-6-4p2-4-4bv--------
--------6-----6b--6v---4-6-4-2-4v-|-----4-----4-------------------------------
-----4-----4----------------------|--2----------------------------------------
--2-------------------------------|-------------------------------------------
              A^  A^           A^          A^    A^  A^                       

-------------------------------------------------------------9----------------
----12--------12-------12-----12-----12------12-----12----------12p9----------
----11brbr-------11b-------11b----11b---11b-----11b----11b--------------------
   All bends on this line are full bends.                                     

------------------9--11--12--11b--r----9--11p9------12------9-----------------
----12bv-----12---------------------------------12------12-----12p9----12-----
   Full Bend                 1/2 bend                        Both Bends Full  

---7--------------------------------------------------------------------------
-------12p11p9-11-11p9------11------9b----------11----9---------11----9b------
------------------------11------11------11-9-11----11---11-9-11----11---------
                                  Full                              1/4 bend  

----------11----9b-----------9--9-\8------8--8\6------6--6\4------5br---------
--11-9-11----11-----11-9-11--11-11\9--9---9--9\7---7--7--7\6---6--6br---------
--------------------------------------11-----------9-----------7--------7v----
              1/4 bend                                          1/2 bend      

----14br-p12-14bv---14brp12-16p14brp12-16p14brp12-16p14brp12-16p14brp12-------
   Full bends all along this line                                             

--19bv-------21b-----b21--b21--b21--b21--b21--b21r----------------------------
  Full Bend  Full    1-1/2  F  1-1/2 F  1-1/2  F                              

---------------17------17------17----------17---------------------------------
----16b-----------b16-----b16-----b16---------b16----16brp14----16----14------
-------------------------------------------------------------16----16---------
   1/2 bends all along this line                                              

----------------17--18--19------17--18--19------17--18--19------17--18--17----
-----------/19--------------19--------------19--------------19----------20b---
---16\14----------------------------------------------------------------------
                                                                 Full Bend    

-19-----19--------------------------------------------------------------------
-22b----22b-------------------------------------------------------------------
-----------------0-------------5^--5^--5^--5^--5^--5^----5^vv-----------------
-------------------------------5^--5^--5^--5^--5^--5^----5^vv-----------------
 Full   1-1/2    Whammy Bar Depression and Release all along                  

--2--4--5--5-----2--4--5--4---------------------------------------------------
--2--4--5--5-----2--4--5--4---------------------------------------------------
--0--2--3--3-----0--2--3--2---------------------------------------------------
  PM_____|       PM_____|          Repeat that many times, then the outro:    

--------------------------|------------------------|--------------------------
--------------------------|------------------------|--------------------------
------8---8-6-------------|-----------------6---6-4|-----8---8/9--------------
----6---6---------9---9-7-|-----4---4-6---4---4----|---6---6---------9---9/11-
--4-------------7---7-----|---2---2-----2----------|-4-------------7---7------
--------------5-----------|-0----------------------|-------------5------------
 With Delay/Slight Echo                                                       

--------------------------------|---------------------------------------------
--------------------------------|---------------------------------------------
-----11---11/13------13----13/14|--------20----20-18-------16----16-14--------
---9----9---------11----11------|-----18----18----------14----14--------------
-7--------------9---------------|-/16----------------12-----------------------
--------------------------------|---------------------------------------------
                                                                              

---------------------------------|--------------------------------------------
---------------------------------|--------------------------------------------
-----11---11-9-------18----18-16-|-------20----20-18-------16----16-14--------
---9----9---------16----16-------|----18----18----------14----14--------------
-7-------------14----------------|-16----------------12-----------------------
---------------------------------|--------------------------------------------
                                                                              

----------------|--------------------------|----------------------------------
----------------|--------------------------|----------------------------------
------11---11-9-|--------18----------18----|-------20-------20-18-------------
----9----9------|-----16----16----16----16-|----18----18-18-------------------
--7-------------|--14----------15----------|-16-------------------------------
----------------|--------------------------|----------------------------------
                                                                              

----------------------|-------------------------------------------------------
----------------------|-------------------------------------------------------
-------16-------16-14-|------11-----11-9--------18-------18-16----------------
----14----14-14-------|----9----9-9----------16----16-16----------------------
-12-------------------|--7----------------14----------------------------------
----------------------|-------------------------------------------------------
                                                                              

-------------------------------------------|-----------------|----------------
-------------------------------------------|-----------------|----------------
-------20-------20-18-------16-------16-14-|-----11-----11-9-|----------------
----18----18-18----------14----14-14-------|---9----9-9------|----------------
-16-------------------12-------------------|-7---------------|----------------
-------------------------------------------|-----------------|----------------
                                                                              

------------------|--------------------------|--------------------------------
------------------|--------------------------|--------------------------------
--------18--------|------8---8v--------------|-----11---11/13------13----13v--
-----16----16-----|----6---6--------9---9/11-|---9----9---------11----11------
--14----------15\-|--4------------7---7------|-7--------------9---------------
------------------|-------------5------------|--------------------------------





Comments


Popular Pantera tabs & chords
Fucking Hostile Bass Tabs
I Can't Hide Bass Tabs
25 Years 1 Tabs
All Over Tonight Tabs
Cant Hide Tabs
Domination (Solo) Tabs
Forever Tonight 1 Tabs
Heavy Metal Rules Tabs
Message In Blood Tabs
Suicide Note Part 2 Tabs


Song lyrics



↑ Back to top | Tablatures and chords are parodies/interpretations of the original songs. You may use it for private study, scholarship, research or language learning purposes only
© 2014 AZChords.com Contact us | Privacy policy | DMCA | Add/correct tabs | Request tabs | Top 50 tabs