>
 >
Floods 1

Floods 1 Guitar Tabs

Pantera - Floods 1 chords, tabs, tablatures, lyrics

Guitar lessons | Add/correct | Request | Top 50 tabs Artists:  A B C D E F G H I J K L M N O P Q R S T U V W X Y Z 0-9

Floods 1 Guitar Tabs – Pantera

CD, Sheet music, Poster

Do you like Floods 1? Share with your friends now
Bass TabsTabsTabs v2Tabs v3Tabs v4
intro 
and verses      x
e-------------------------------------------------------------------|
b-------------------------------------------------------------------|
g----------------------0-------------------------------0------------|
d------------------6------------6-------------6-----------6---------|
a--------------7-----------------------------------7---------7------|
e-----------9------------------------8--------------------------8---|



 
  (dist)
e---------------------------------------0------------------|
b---------------------------------------0------------------|
g---------------------------------------1------------------|
d-----------------2--------------0------2------------------|
a-------------2-------------2-----------2------------------|
e---0---/-4------------3----------------0------------------|



the 
talking part ('then throughout the night...')

e---0---0---0--0--------0--0--0----0---0----------|
b---0---0---0--0--------0--0--0----0---0----------|
g---8---8---8--8----x---5--5--5----5---5----x-----| 
x3
d---6---6---6--6----x---2--2--2----2---2----x-----|
a---4---4---4--4----x---0--0--0----0---0----x-----|
e-------------------------------------------------|


Cold 
hearted world..

e----0---0---0---0---0---0----0---------|
b----0---0---0---0---0---0----0---------|
g---11--11--11--11--11--11---13---------|
d----9---9---9---9---9---9---11---------|
a----7---7---7---7---7---7----9---------|
e---------------------------------------|

heavy part use tremolo bar to get the cool diving feel



    
       >       >      >       >
e-----------------------------|----------------------------------
b-----------------------------|----------------------------------
g-----------------------------|----------------------------------
d--4-------4-------4------4---|---4----5--4--4---4---/---8-------
a--4-------4-------4------4---|---4----5--4--4---4---/---8-------
e--2-------2-------2------2---|---2----3--2--2---2---/---6-------

 
   >       >       >       >
e-----------------------------|----------------------------
b-----------------------------|----------------------------
g-----------------------------|----------------------------
d--2-------2-------2-------2--|---2-----2-----/---6--------
a--2-------2-------2-------2--|---2-----2-----/---6--------
e--0-------0-------0-------0--|---0-----0-----/---4--------



 
 p.m ...........|          p.m...........|
e--------------------------------------------------
b--------------------------------------------------
g--------------------------------------------------
d--------------------------------------------------
a---2----4---5----5----------2---4----5---4--------
e---0----2---3----3----------0---2----3---2--------

softe part before the solo

e----------------------------------h-----------
b------------0-------------------0---1--------- 
p
g--------8----------8--------------------0----- l
d-----6--------------------2------------------- 
a
a--4--------------------0---------------------- y
e----------------------------------------------

e---------------------------------------------- 
t
b---------------0-------0---------------------- w
g-----------8-----------5---------------------- 
i
d-------6---------------2---------------------- c
a---4-------------------0---------------------- 
e
e----------------------------------------------

Solo: im still working on follows same patterns as outro

Outro

here is the nice outro use light distortion and delay and a bit of chorus to get full effect

e-------------------------------------------------------------------------------------
b-------------------------------------------------------------------------------------
g---------8-----8---6--------------------------------------------------6-----6--4------
d------6-----6------------------9-----9---7----------4----4--6-----4------4-----------
a---4------------------------7-----7--------------2----2--------2---------------------
e-------------------------5--------------------0--------------------------------------

thats all except for solo it should be ready soon or look on another site for it its a pretty cool solo to play





Comments


Popular Pantera tabs & chords
Death Rattle Bass Tabs
Drag The Water Bass Tabs
I Cant Hide Bass Tabs
We'll Grind That Axe For A Long Time Bass Tabs
Hollow Drum Tabs
Domination 2 Tabs
Killers Tabs
Underground In America 1 Tabs
Valhalla Tabs
Walk 7 Tabs


Song lyrics



↑ Back to top | Tablatures and chords are parodies/interpretations of the original songs. You may use it for private study, scholarship, research or language learning purposes only
© 2014 AZChords.com Contact us | Privacy policy | DMCA | Add/correct tabs | Request tabs | Top 50 tabs