» » »

Death Rattle Bass tabs (ver.1)

Artists:  A B C D E F G H I J K L M N O P Q R S T U V W X Y Z # 

Death Rattle Bass tabs (ver.1)

Pantera
Rating:
0/5 (0 votes)

Tabs too difficult? Try these video lessons and learn fast.
                Band- Pantera
Song- Death Rattle

Indications :
(b) on the part mean bend the cord.
(~) on the part mean lets sounds the cord.
(note) on the part represent harmonics

Riff #1 (0:00)
g|----------|
d|----------|
a|----------|
e|-000-0-0--| x8

Riff #2 (0:09)
g|---------------------|
d|---------------------|
a|---------------------|
e|-22-00-1-00-3-00-22--|

Riff #3 (0:19)
g|------------------|
d|------------------|
a|------------------|
e|-323-212-101-010--| x4

Riff #1 (0:29)
g|----------|
d|----------|
a|----------|
e|-000-0-0--| x4

Riff #2 (0:33)
g|---------------------|
d|---------------------|
a|---------------------|
e|-22-00-1-00-3-00-22--| x4

Riff #3 (0:43)
g|------------------|
d|------------------|
a|------------------|
e|-323-212-101-010--| x4

Riff #4 (0:53)
g|------------------------------------------------------------|
d|------------------------------------------------------------|
a|-----4h5--5h6—2h3---5-----4h5--5h6—2h3---------4h5--5h6—2h3-|
e|-0000-------------0h-00000-------------0h300000-------------|

--------------------------|
--------------------------|
--5-----4h5--5h6—2h3------|
0h-00000------------4340--|

Riff #2 (1:03)
g---------------------|
d---------------------|
a---------------------|
e-22-00-1-00-3-00-22--| x4

Riff #3 (1:12)
g------------------|
d------------------|
a------------------|
e-323-212-101-010--| x4

Riff #4 (1:22)
g|------------------------------------------------------------|
d|------------------------------------------------------------|
a|-----4h5--5h6—2h3---5-----4h5--5h6—2h3---------4h5--5h6—2h3-|
e|-0000-------------0h-00000-------------0h300000-------------|

--------------------------|
--------------------------|
--5-----4h5--5h6—2h3------|
0h-00000------------4340--|

Riff #5 (1:41)
g|-------------------------------------|
d|-------------------------------------|
a|------------------------4h5-3h4-323--|
e|-00000000000000000000000-----------0-|

Riff #6 (2:01)
g|----------------|
d|----------------|
a|-4h5-3h4-323----|
e|------------320-| x8

Riff #1 (2:20)
g|----------|
d|----------|
a|----------|
e|-000-0-0--| x8

Riff #7 (2:30)
g|--------------------------------------------------------------------|
d|--------------------------------------------------------------------|
a|-1-----1-21---------21---------32---------32--------43--------43----|
e|--333-3-3---2111-121---3222-232---3222-232--4333-434--4333-434--544-|

g-----------------------------------|
d-----------------------------------|
a-----------------------------------|
e-4-4-6-5-5-7-6-6-8-7-7-9-8-8-10-9--|

Riff #8 (2:48)
g--------------------------------------------------------------------|
d--------------------------------------------------------------------|
a--------------------------------------------------------------------|
e-0-0--------0-010/-----------03/5-5/--------------0//11/------------|

Riff #7 (2:57) end
g---------------|
d---------------|
a---------------|
e-1-000-010-43--|
            
Tabs too difficult? Try these video lessons and learn fast.


comments powered by Disqus
↑ Back to top | Tablatures and chords are parodies/interpretations of the original songs. You may use it for private study, scholarship, research or language learning purposes only