>
 >
Death Rattle

Death Rattle Guitar Tabs

Pantera - Death Rattle chords, tabs, tablatures, lyrics

Guitar lessons | Add/correct | Request | Top 50 tabs Artists:  A B C D E F G H I J K L M N O P Q R S T U V W X Y Z 0-9

Death Rattle Guitar Tabs – Pantera

CD, Sheet music, Poster

Do you like Death Rattle? Share with your friends now
Bass TabsTabsTabs v2
PANTERA - DEATH RATTLE
(Reinventing The Steel, 2000)

Key
= after note = vibrato
^ after note = heavy vibrato 
\ = slide down
/ = slide up
+ = tap
h = hammer
p = pull
n = natural harmonic
s = pinching harmonic (squeal)
* = tremolo pick
t = trill
b = bend
|-3-| = triplet

n number above the tab = play the first part then the first finishing part
			 play the first part a second time and then play the second finishing part
			 etc.

Tune Down 1 1/4 Step

Riff 1

D -------------------------------
A -------------------------------
F -------------------------------
C -2-2-5-5-7-7--7-2-2-5-5-7-7--7-
G -2-2-5-5-7-7--7-2-2-5-5-7-7--7-
D -0-0-3-3-5-5--5-0-0-3-3-5-5--5-

Riff 1A

D ------------------------
A ------------------------
F ------------------------
C -2-2-5-5-7-7--7-2-2-5-5-
G -2-2-5-5-7-7--7-2-2-5-5-
D -0-0-3-3-5-5--5-0-0-3-3-

Riff 2

D ----------------------------
A ----------------------------
F ----------------------------
C -7\6/7--6\5/6--5\4/5--4\3/4-
G -7\6/7--6\5/6--5\4/5--4\3/4-
D -5\4/5--4\3/4--3\2/3--2\1/2-

Riff 3

D ---------------------------------------------------------------------------------------------------------------
A ---------------------------------------------------------------------------------------------------------------
F -------------------------------------------------------------10------------------------------------------------
C -----------------------------/8------------------------------10------------------------------/6----------------
G ---------5-7---7-8---5-7-----/8----------5-7---7-8---5-7-----8 ----------5-7---7-8---5-7-----/6----------5-7---
D -0-0-0-0-----0-----0-----0-0-/6--0-0-0-0-----0-----0-----0-0-8 --0-0-0-0-----0-----0-----0-0-/4--0-0-0-0-----0-

D ------------------
A ------------------
F ------------------
C ------------------
G -3-5---2-3-0------
D -----0-------3-1--

Riff 3A

D -------------------------------------------------------------------------------------------------------------------
A -------------------------------------------------------------------------------------------------1b----------------
F -------------------------------------------------------------10----------------------------------1b----------------
C -----------------------------/8------------------------------10------------------------------/6--------------------
G ---------5-7---7-8---5-7-----/8----------5-7---7-8---5-7-----8 ----------5-7---7-8---5-7-----/6--------------------
D -0-0-0-0-----0-----0-----0-0-/6--0-0-0-0-----0-----0-----0-0-8 --0-0-0-0-----0-----0-----0-0-/4--------------------

Riff 4

D ----------------------------------------------------------------
A ----------------------------------------------------------------
F ----------------------------------------------------------------
C ----------------------------------------------------------------
G -----------------------------------------------5-7---3-5-2-3----
D -0-0-0-0-0-0-0-0-0-0-0-0-0-0-0-0-0-0-0-0-0-0-0-----0---------4==

Riff 5

D -------------------------------------------------------------
A -------------------------------------------------------------
F -------------------------------------------------------------
C -------------------------------------------------------------
G -------5-7---3-5-0-2----0-2----------5-7---3-5-0-2----0------
D -0-0-0-----0---------3==----3==0-0-0-----0---------3==--3-1==

Riff 5A

D -------------------------------------------------------------
A -------------------------------------------------------------
F -------------------------------------------------------------
C -------4-5---2-4---------------------4-5---2-4---------------
G -----------------0-2----0-2--------------------0-2----0------
D -0-0-0-----0---------3==----3==0-0-0-----0---------3==--3-1==

Riff 6

D -----------------------------------------------------------------------------------------------------
A -----------------------------------------------------------------------------------------------------
F ---------------------------------------------------------------------6--5---------------------6--5---
C ---2--2--2------2--8--7-----2--2--2------2--8--7-----5--5--5------5--6--5-----5--5--5------5--6--5---
G ---2--2--2------2--8--7-----2--2--2------2--8--7-----5--5--5------5--4--3-----5--5--5------5--4--3---
D -3-0--0--0--0-3-0--6--5---3-0--0--0--0-3-0--6--5---6-3--3--3--3-6-3---------6-3--3--3--3-6-3---------

D ---------------------------------------------------------------------------------------------------------
A -------------------4--3---------------------4--3---------------------------------------------------------
F ---2--2--2------2--3--2-----2--2--2---------3--2-----3--3--3------4--4--4--------------------------------
C ---2--2--2------2--1--0-----2--2--2---------1--0-----3--3--3------4--4--4----1------2------3------4------
G -3-0--0--0--0-3-0---------3-0--0--0--0-3-0---------4-1--1--1--1-5-2--2--2--2---3--3---4--4---5--5---6--6-
D ---------------------------------------------------------------------------------------------------------

Riff 7

D -------------------------------------------------------------------------------------------------
A -------------------------------------------------------------------------------------------------
F -------------------------------------------------------------------------------------------------
C -------------------------------------------------------------------7-----6-----5-----4-----3---3-
G ---7-----6-----5-----4-----3---3---8-----7-----6-----5-----4---4-0---8-5---7-5---6-5---5-5---4---
D -0---8-5---7-5---6-5---5-5---4---0---7-5---6-5---5-5---4-5---3-----------------------------------

D ---------------------------------
A ---------------------------------
F ---------------------------------
C ---------------------------------
G -0-7-----6-----5-----4-----3---3-
D -----8-5---7-5---6-5---5-5---4---

Riff 8

D --------------------------
A --------------------------
F --------------------------
C ---2--2--2--2------8--7---
G ---2--2--2--2------8--7---
D -3-0--0--0--0-3-0--6--5---

Riff 8A

D ----------------------------
A ----------------------------
F ----------------------------
C ---2--2--2--2------8--7---2-
G ---2--2--2--2------8--7---2-
D -3-0--0--0--0-3-0--6--5---0-

Order

Noise
Riff 1 x 3
Riff 1A x 1
Riff 2 x 4
Noise
Riff 1 x 3
Riff 1A x 1
Riff 2 x 4
Riff 3 x 1
Riff 1 x 3
Riff 1A x 1
Riff 2 x 4
Riff 3 x 1
Riff 3A x 1
Riff 4 x 4
Riff 5 x 4
Noise
Solo over Riff 6 x 1
Riff 7 x 1
Riff 8 x 7
Riff 8A x 1





Comments


Popular Pantera tabs & chords
Im Broken Bass Tabs
Paranoids Bass Tabs
A New Level Tabs
Fucking Hostile Tabs
God Damn Electric Tabs
I Cant Hide 1 Tabs
Mouth For War 2 Tabs
Slaughtered Tabs
Suicide Note Part 1 Tabs
Suicide Note Pt. 1 1 Tabs


Song lyrics



↑ Back to top | Tablatures and chords are parodies/interpretations of the original songs. You may use it for private study, scholarship, research or language learning purposes only
© 2014 AZChords.com Contact us | Privacy policy | DMCA | Add/correct tabs | Request tabs | Top 50 tabs