>
 >
Death Rattle 1

Death Rattle 1 Guitar Tabs

Pantera - Death Rattle 1 chords, tabs, tablatures, lyrics

Guitar lessons | Add/correct | Request | Top 50 tabs Artists:  A B C D E F G H I J K L M N O P Q R S T U V W X Y Z 0-9

Death Rattle 1 Guitar Tabs – Pantera

CD, Sheet music, Poster

Do you like Death Rattle 1? Share with your friends now
Bass TabsTabsTabs v2
Tune Down 1 1/4 Step

       Verse Riff

D -----|------------------------|
A -----|------------------------|
F -----|------------------------|
C -----|------------------------|
G -7-7-|-7--2-2-2-2-5-5-2-2/7-7-|
D -5-5-|-5--0-0-0-0-3-3-0-0/5-5-|

End of Verse Riff

D ----------------------|
A ----------------------|
F ----------------------|
C ----------------------|
G --7--2-2-2-2-5-5-2-2--|
D --5--0-0-0-0-3-3-0-0--|


Pre-Chorus

D ----------------------------|
A ----------------------------|
F ----------------------------|
C -7\6/7--6\5/6--5\4/5--4\3/4-|
G -7\6/7--6\5/6--5\4/5--4\3/4-|
D -5\4/5--4\3/4--3\2/3--2\1/2-|

Chorus

D --------------------------------------------------------------------|
A --------------------------------------------------------------------|
F --------------------------------------------------------------------|
C -------------------------------------------------------------/10----|
G ---------5h7---5h8---5h7------8----------5h7---5h8---5h7-----/8-----|
D -0-0-0-0-----0-----0-----0-0-/6--0-0-0-0-----0-----0-----0-0--------|
   . . . .     .     .     . .     . . . .     .     .     . .
D -----------------------------------------------------------------|
A -----------------------------------------------------------------|
F -----------------------------------------------------------------|
C -----------------------------/6----------------------------------|
G ---------5h7---5h8---5h7-----/6----------5-7----3-5---2-3-0------|
D -0-0-0-0-----0-----0-----0-0-/4--0-0-0-0-----0------0-------3-1--|



D ----------------------------------------------------------------|
A ----------------------------------------------------------------|
F -------------------------------------------------------------10-|
C -----------------------------/8------------------------------10-|
G ---------5h7---7h8---5h7-----/8----------5-7---7-8---5-7-----8 -|
D -0-0-0-0-----0-----0-----0-0-/6--0-0-0-0-----0-----0-----0-0-8 -|

-------------------------------------|
-------------------------------------|
-------------------------------------|
-----------------------------/6------|
---------5-7---7-8---5-7-----/6------|
-0-0-0-0-----0-----0-----0-0-/4-/15--|b


Interlude

D ------------------------------------------------------------------|
A ------------------------------------------------------------------|
F ------------------------------------------------------------------|
C ------------------------------------------------------------------|
G -----------------------------------------------5-7---3-5-0-2------|
D -0-0-0-0-0-0-0-0-0-0-0-0-0-0-0-0-0-0-0-0-0-0-0-----0---------4~~~-|
                                                               *slight bend
Pre-Solo Guitar 1

D --------------------------------------------------------------|
A --------------------------------------------------------------|
F --------------------------------------------------------------|
C --------------------------------------------------------------|
G -------5h7---3h5-0h2----0h2----------5h7---3h5-0h2----0-------|
D -0-0-0-----0---------3~~----3~~0-0-0-----0---------3~~--3-1~~-|

Pre-Solo Guitar 2

D ----------------------------------------------------------------|
A ----------------------------------------------------------------|
F ----------------------------------------------------------------|
C ----------------------------------------------------------------|
G -------9h10---7h9-5h7----5h7----------9h10---7h9-5h7------------|
D -0-0-0------0---------6~~----6~~0-0-0------0---------6~~8-7-5~~-|


Rhythm During Solo
                           x2                     x2                      x2
D --------------------------|----------------------|-----------------------|
A --------------------------|----------------------|-----------------------|
F --------------------------|----------------------|-----------------------|
C ---------------------4--3-|------------------6-5-|-------------------8-7-|
G -3-2--2--2-----3-2---2--1-|-8/5--5--5-5/8/5--4-3-|-10/7--7-7-7/10/7--6-5-|
D -1-0--0--0---0-1-0--------|-6/3--3--3-3/6/3------|--8/5--5-5-5/-8/5------|

D ----------------------------------------------------------|
A ----------------------------------------------------------|
F ----------------------------------------------------------|
C ----------------------------------------------------------|
G 11/8--8-8-8/12/9--9-9---6-----7-----8-------9-------------|
D -9/6--6-6-6/10/7--7-7-7---8-8---9-9---10-10---11-11--/12~~|

Solo
Not 100 percent but close enough that you can listen to it and figure it out

D ------------------------------|--------------------------------------?
A ------------------------------|--------------------------------------?
F -xxxxxxx------------xxxxxx----|--------------------------------------?
C ---xxxxxxx--------xxxxxx------|--------------------------------------?
G ------xxxxxx----xxxxxx--------|--------------------------------------?
D ----------xxxxxxxx------------|--------------------------------------?
  *Back and forth pick scraping *digitech whammy effect harmonic sqeals?????

D ----------------------------------------------------------------------------|
A ----------------------------------------------------------------------------|
F ----------------------------------------------------------------------12b~~-|
C -------10----12----------10----12----10----------10----12----10-12b-10------|
G -10-12----12----12-10-12----12----12----12-10-12----12----12----------------|
D ----------------------------------------------------------------------------|

D -------------------8-10-11-10-8----9-11-12-11-9----10-12-13-12-10-|
A -11--11---12----10--------------11--------------12----------------|
F -13b-13b--14b-----------------------------------------------------|
C ------------------------------------------------------------------|
G ------------------------------------------------------------------|
D ------------------------------------------------------------------|

D ----11-13-14-13-11----12-14-15-14-12----------------------|
A -13----------------14-----------------/17~~~~~------------|
F ----------------------------------------------------------|
C ----------------------------------------------------------|
G ----------------------------------------------------------|
D ----------------------------------------------------------|


Post Solo


D ------------------------------------------------------------------------------------------------|
A ------------------------------------------------------------------------------------------------|
F ------------------------------------------------------------------------------------------------|
C ------------------------------------------------------------------0-7-----6-----5-----4-----3---|
G -0-7-----6-----5-----4-----3------0-8-----7-----6-----5-----4---------8-5---7-5---6-5---5-5---4b|
D -----8-5---7-5---6-5---5-5---4b-------7-5---6-5---5-5---4-5---3b--------------------------------|

D ----------------------------------|
A ----------------------------------|
F ----------------------------------|
C ----------------------------------|
G -0-7-----6-----5-----4-----3------|
D -----8-5---7-5---6-5---5-5---4/---|


Outro

D --------------------------|
A --------------------------|
F --------------------------|
C ---------------------4--3-|
G -3-2--2--2-----3-2---2--1-|
D -1-0--0--0---0-1-0--------|

End

D ----------------------------|
A ----------------------------|
F ----------------------------|
C -------------------4-3----2-|
G -3-2--2--2--2------2-1----2-|
D -1-0--0--0--0-3-0---------0-|





Comments


Popular Pantera tabs & chords
Cowboys From Hell 2 Bass Tabs
Uplift 2 Bass Tabs
Uplifting Bass Tabs
Walk Drum Tabs
Base Mouth Intro Tabs
Floods 1 Tabs
Floods 2 Tabs
Medicine Man Tabs
No Good Attack The Radical 1 Tabs
Use My Third Arm Tabs


Song lyrics



↑ Back to top | Tablatures and chords are parodies/interpretations of the original songs. You may use it for private study, scholarship, research or language learning purposes only
© 2014 AZChords.com Contact us | Privacy policy | DMCA | Add/correct tabs | Request tabs | Top 50 tabs