» » »

Becoming Tabs (ver.3)

Artists:  A B C D E F G H I J K L M N O P Q R S T U V W X Y Z # 

Becoming Tabs (ver.3)

Pantera
Rating:
3/5 (2 votes)

Hard to play? Try these video lessons and learn fast.
                Intro:
|-----------------------------------------|
|-----------------------------------------|
|-----------------------------------------|
|-----------------------------------------|
|-0-0-0--0-0-0--0-0-0--0-0-0--0-0-0--0-0--|
|-0-0-0--0-0-0--0-0-0--0-0-0--0-0-0--0-0--|

Main Riff:
|------18-------------18---------------18-------------18---------|
|----------------------------------------------------------------|
|------14-------------14---------------14-------------14---------|
|----------------------------------------------------------------|
|-0-0-----0-0-0--0-0-----0-0-2-3--0-0-----0-0-0--0-0-----0-0-2-3-|
|-0-0-----0-0-0--0-0-----0-0-2-3--0-0-----0-0-0--0-0-----0-0-2-3-|

|------18-------------18---------------18-------------18---------|
|----------------------------------------------------------------|
|------14-------------14---------------14-------------14---------|
|----------------------------------------------------------------|
|-0-0-----0-0-0--0-0-----0-0-2-3--0-0-----0-0-0--0-0-----0-0-2-3-|
|-0-0-----0-0-0--0-0-----0-0-2-3--0-0-----0-0-0--0-0-----0-0-2-3-|

Verse:
|--------------------------------------------------------------------------|
|--------------------------------------------------------------------------|
|--------------------------------------------------------------------------|
|--------------------------------------------------------------------------|
|-0-0--0-0-0--0-0-0--0-0-2-3--0-0--0-0-0--0-0-0--0-0-2-3-------------------|
|-0-0--0-0-0--0-0-0--0-0-2-3--0-0--0-0-0--0-0-0--0-0-2-3-------------------|

|--------------------------------------------------------------------------|
|--------------------------------------------------------------------------|
|--------------------------------------------------------------------------|
|--------------------------------------------------------------------------|
|-0-0--0-0-0--0-0-0--0-0-2-3--0-0--0-0-0--0-0-0--0-0-2-3-------------------|
|-0-0--0-0-0--0-0-0--0-0-2-3--0-0--0-0-0--0-0-0--0-0-2-3-------------------|

Pre-chorus:
|------18-------------18---------------18-------------18---------|
|----------------------------------------------------------------|
|------14-------------14---------------14-------------14---------|
|----------------------------------------------------------------|
|-0-0-----0-0-0--0-0-----0-0-2-3--0-0-----0-0-0--0-0-----0-0-2-3-|
|-0-0-----0-0-0--0-0-----0-0-2-3--0-0-----0-0-0--0-0-----0-0-2-3-|

|------18-------------18---------------18-------------18---------|
|----------------------------------------------------------------|
|------14-------------14---------------14-------------14---------|
|----------------------------------------------------------------|
|-0-0-----0-0-0--0-0-----0-0-2-3--0-0-----0-0-0--0-0-----0-0-2-3-|
|-0-0-----0-0-0--0-0-----0-0-2-3--0-0-----0-0-0--0-0-----0-0-2-3-|

Chorus:
|----------------------------------------------------------------|
|----------------------------------------------------------------|
|----------------------------------------------------------------|
|----------------------------------------------------------------|
|-7-5-3-2-0--7-6-5--3-2-0--7-5-3-2-0--7-6-5--3-2-0---------------|
|-7-5-3-2-0--7-6-5--3-2-0--7-5-3-2-0--7-6-5--3-2-0---------------|

Main Riff:
|-------------------------18-------------18---------------18------------18-|
|--------------------------------------------------------------------------|
|-------------------------14-------------14---------------14------------14-|
|--------------------------------------------------------------------------|
|-0-0-0--0-0-0--0-0--0-0-----0-0-0--0-0-----0-0-2-3--0-0-----0-0-0--0-0----|
|-0-0-0--0-0-0--0-0--0-0-----0-0-0--0-0-----0-0-2-3--0-0-----0-0-0--0-0----|

|--------------18-------------18---------------18-------------18---------|
|------------------------------------------------------------------------|
|--------------14-------------14---------------14-------------14---------|
|------------------------------------------------------------------------|
|-0-0-2-3-0-0-----0-0-0--0-0-----0-0-2-3--0-0-----0-0-0--0-0-----0-0-2-3-|
|-0-0-2-3-0-0-----0-0-0--0-0-----0-0-2-3--0-0-----0-0-0--0-0-----0-0-2-3-|

Verse:
|--------------------------------------------------------------------------|
|--------------------------------------------------------------------------|
|--------------------------------------------------------------------------|
|--------------------------------------------------------------------------|
|-0-0--0-0-0--0-0-0--0-0-2-3--0-0--0-0-0--0-0-0--0-0-2-3-------------------|
|-0-0--0-0-0--0-0-0--0-0-2-3--0-0--0-0-0--0-0-0--0-0-2-3-------------------|

|--------------------------------------------------------------------------|
|--------------------------------------------------------------------------|
|--------------------------------------------------------------------------|
|--------------------------------------------------------------------------|
|-0-0--0-0-0--0-0-0--0-0-2-3--0-0--0-0-0--0-0-0--0-0-2-3-------------------|
|-0-0--0-0-0--0-0-0--0-0-2-3--0-0--0-0-0--0-0-0--0-0-2-3-------------------|

Pre-chorus:
|------18-------------18---------------18-------------18---------|
|----------------------------------------------------------------|
|------14-------------14---------------14-------------14---------|
|----------------------------------------------------------------|
|-0-0-----0-0-0--0-0-----0-0-2-3--0-0-----0-0-0--0-0-----0-0-2-3-|
|-0-0-----0-0-0--0-0-----0-0-2-3--0-0-----0-0-0--0-0-----0-0-2-3-|

|------18-------------18---------------18-------------18---------|
|----------------------------------------------------------------|
|------14-------------14---------------14-------------14---------|
|----------------------------------------------------------------|
|-0-0-----0-0-0--0-0-----0-0-2-3--0-0-----0-0-0--0-0-----0-0-2-3-|
|-0-0-----0-0-0--0-0-----0-0-2-3--0-0-----0-0-0--0-0-----0-0-2-3-|

Chorus:
|----------------------------------------------------------------|
|----------------------------------------------------------------|
|----------------------------------------------------------------|
|----------------------------------------------------------------|
|-7-5-3-2-0--7-6-5--3-2-0--7-5-3-2-0--7-6-5--3-2-0---------------|
|-7-5-3-2-0--7-6-5--3-2-0--7-5-3-2-0--7-6-5--3-2-0---------------|

(Solo I don't know)

Chorus:
|----------------------------------------------------------------|
|----------------------------------------------------------------|
|----------------------------------------------------------------|
|----------------------------------------------------------------|
|-7-5-3-2-0--7-6-5--3-2-0--7-5-3-2-0--7-6-5--3-2-0---------------|
|-7-5-3-2-0--7-6-5--3-2-0--7-5-3-2-0--7-6-5--3-2-0---------------|

Main Riff:
|------18-------------18---------------18-------------18---------|
|----------------------------------------------------------------|
|------14-------------14---------------14-------------14---------|
|----------------------------------------------------------------|
|-0-0-----0-0-0--0-0-----0-0-2-3--0-0-----0-0-0--0-0-----0-0-2-3-|
|-0-0-----0-0-0--0-0-----0-0-2-3--0-0-----0-0-0--0-0-----0-0-2-3-|

|------18-------------18---------------18-------------18---------|
|----------------------------------------------------------------|
|------14-------------14---------------14-------------14---------|
|----------------------------------------------------------------|
|-0-0-----0-0-0--0-0-----0-0-2-3--0-0-----0-0-0--0-0-----0-0-2-3-|
|-0-0-----0-0-0--0-0-----0-0-2-3--0-0-----0-0-0--0-0-----0-0-2-3-|

Outro:
|--------------------------------------------------------------------------|
|--------------------------------------------------------------------------|
|--------------------------------------------------------------------------|
|--------------------------------------------------------------------------|
|-0-0--0-0-0--0-0-0--0-0-2-3--0-0--0-0-0--0-0-0--0-0-2-3-------------------|
|-0-0--0-0-0--0-0-0--0-0-2-3--0-0--0-0-0--0-0-0--0-0-2-3-------------------|
            
Hard to play? Try these video lessons and learn fast. | Correct




comments powered by Disqus
↑ Back to top | Tablatures and chords are parodies/interpretations of the original songs. You may use it for private study, scholarship, research or language learning purposes only