» » »

Becoming Bass tabs (ver.1)

Artists:  A B C D E F G H I J K L M N O P Q R S T U V W X Y Z # 

Becoming Bass tabs (ver.1)

Pantera
Rating:
3/5 (3 votes)

Hard to play? Try these video lessons and learn fast.
                Here's the bass tab for Becoming from PanterA, one of my 
favorite metal band. Hope You'll like it. 
It's standard tuned EADG.



INTRO
|-------------------------------------------|
|-------------------------------------------|
|-------------------------------------------|
|-3-3-3--3-3-3--3-3-3--3-3-3--3-3-3--3-3----|


VERSE1

|-------------------------------------------|
|-------2-------------------2---------------|
|---0-0---3\2-0-0---3\2-0-0---3\2-0-2-3-----|
|-------------------------------------------|  x4


VERSE2

A long time ago..
|-----------------------------------|
|-----------------------------------|
|---0-0--0-2-0--0-2-0--0-0-2-3------|
|-----------------------------------|  x4


VERSE1  x4


CHORUS
I'm born again, with snakes eyes...
|-------------------------------------|
|--------------------3-2--------------|
|---9--7--3-2------------4--3-2-------|
|-------------4-----------------4-----|  x2


FILL

|-----------------------|
|-----------------------|
|-----------------------|
|---3-3-3--3-3-3--3-3---|


VERSE1  x4

VERSE2  x4

VERSE1  x4

CHORUS  x2

INTRO

VERSE1  x4 (During Dimebag's solo)

CHORUS  x2

FILL

CHORUS  x2

INTRO

VERSE1

OUTRO

|---------------------------------------------|
|---------------------------------------------|
|-0-0--0-0--0-0--0-2-3--0-0--0-0--0-0--3-2-0--|
|---------------------------------------------|
            
Hard to play? Try these video lessons and learn fast. | Correct




comments powered by Disqus
↑ Back to top | Tablatures and chords are parodies/interpretations of the original songs. You may use it for private study, scholarship, research or language learning purposes only