» » »

Panic At The Disco, Build God Then Well Talk Bass tabs (ver.2)

Artists:  A B C D E F G H I J K L M N O P Q R S T U V W X Y Z # 

Build God Then Well Talk Bass tabs (ver.2)

Panic At The Disco Tabs
Rating:
0/5 (0 votes)
Build God Then Well Talk lessons Tabs too difficult? Try these video lessons and learn fast
                This tabs is a little bit different than others, but i think is easier than theys.
Intro
G:-------------|
D:-4~-4-2-0----|
A:-------------|
E:----------3--|

You have to listen the song for know the timing.
Verse         
G:-------------2---------------------------------2--2-0----------------|
D:4----4---2-------0-------2---0--------4----2----------3-0------------|
A:---2---0---0---------------------0--2----0---0-----------------------|
E:---------------3---3~--2---1---2-------------------------------------|

Pre-Chorus:
G:----------------------|
D:----------------------|
A:----------------------|
E:-33-22112222----------|

Chorus x2
G:------00---------------------|
D:---00----22------22-00-------|  
A:22-------------22-------2~---|
E:-----------------------------|

After Chorus
G:-------------------------------|---------------------------------------|x2
D:-------------------------------|---------------------------------------|
A:------------000-------------1~-|-222111000---------------2-------------|
E:000-222-333-----000-222-333----|-----------4443332220002>--------------|

Pre-Verse
G:----------------------|
D:4-2-0-----------------|
A:----------------------|
E:------3-3/2-2/1-1/2---|

Play the Verse twice and at Third Time Play:
G:----------2-----------------------------------------------------------|
D:--4----2------0-------------------------------------------------------|
A:2----0--0-------------------------------------------------------------|
E:------------3-----33-22-11-22-3333-222--------------------------------|

Chorus x2
G:------00---------------------|
D:---00----22------22-00-------|  
A:22-------------22-------2~---|
E:-----------------------------|

Brake
G:-------------------------------------|
D:-------------------------------------|
A:---------11111111--------11111111----|
E:-33333333--------33333333------------|

After-Chorus
G:-------------------------------|---------------------------------------|x2
D:-------------------------------|---------------------------------------|
A:------------000-------------1~-|-222111000---------------2-------------|
E:000-222-333-----000-222-333----|-----------4443332220002>--------------|

Interlude
G:------|-----0~---------|x2 -----------| 
D:------|---0~--2~--2~-0~|   -----------|
A:---4>-|-2~------2~-----|   -----------|
E:-2>---|----------------|   -3>2>2~----|

Ochesta Part: Dont Play Anything....

Pre-Outro
G:-------------------------------------|
D:-------------------------------------|
A:---------11111111--------11111111----|
E:-33333333--------33333333------------|

Outro
G:-------------------------------|---------------------------------------|x2
D:-------------------------------|---------------------------------------|
A:------------000-------------1~-|-222111000---------------4-------------|
E:000-222-333-----000-222-333----|-----------4443332220002>--------------|

So This is it

Please Rate and If U can Make a little Comment. 
Bye
            

comments powered by Disqus
↑ Back to top | Panic At The Disco Bass for Build God Then Well Talk. Lyrics for acoustic guitar and electric guitar. Tablatures and chords are parodies/interpretations of the original songs. You may use it for private study, scholarship, research or language learning purposes only