» » »

Build God Then Well Talk Bass tabs (ver.3)

Artists:  A B C D E F G H I J K L M N O P Q R S T U V W X Y Z # 

Build God Then Well Talk Bass tabs (ver.3)

Panic At The Disco
Rating:
0/5 (0 votes)

Hard to play? Try these video lessons and learn fast.
                Build God, Then We'll Talk - Panic! At The Disco






So this is basically a corrected version of the two bass tabs before this. The first tab 
was mostly right, but hard to shift up and down. The second tab was mostly correct 
except for in a few places. So here is the correct version. Enjoy.


Standard tuning


Intro
(0:07)
G:------------|
D:---4-2-0----|
A:------------|
E:2~-------3--|

Verse
(0:14)
G:-------------2--------------------------------2---------------------|
D:4----4---2-------0---4---2---0--------4---2-----4-2-0---------------|
A:---2---0---0---------------------0--2---0---0-----------------------|
E:---------------3---3---2---1---2----------------------33-22-11-2222-|

Chorus
(0:32)
G:------00----------------------|
D:---00----22----22-00----------|  x2
A:22----------22-------2~-(/14)-|
E:------------------------------|

Pre-Verse
(0:53)
G:---------------------------------------------------------------------------|
D:---------------------------------------------------------------------------|
A:------------000-------------1~-222-111-000--------------------------------2|
E:000-222-333-----000-222-333----------------444-333-222-000-222222222222222-|

Verse
(1:10)
G:----------------------|
D:4-2-0-----------------|
A:----------------------|
E:------3-3/2-2/1-1/2---|

1st time
G:----------2---------------------|
D:--4---2-------0---4---2---0-----|
A:2---0---0---------------------0-|
E:------------3---3---2---1---2---|

2nd time
G:-----------2---------------------|
D:---4---2-------0---4---2---0-----|
A:22---0---0---------------------0-|
E:-------------3---3---2---1---2---|

3rd time
G:-----------2-------------------------------2------------------------------|
D:--4---2------4-2-0------------4---4----2-------0--------------------------|
A:2---0---0-----------------------2----0---0--------------------------------|
E:-------------------3~------------------------3---33-22-11-22-33333333-222-|

Chorus
(1:49)
G:------00---------------------|
D:---00----22----22-00---------|   x2
A:22----------22-------2~------|
E:-----------------------------|

Bridge
(2:07)
G:-------------------------------------------------------------------------------------------|
D:-------------------------------------------------------------------------------------------|
A:-------222222--------222222-------------000-------------1~-222-111-000-----------------444-|
E:333333--------333333--------000-222-333-----000-222-333----------------444-333-222-000-----|

G:-------------------------------------|
D:-----------------------------------0-|
A:222-111-000--------------------------|
E:------------444-333-222-000-2-3------|

G:----0-------------|
D:--0---2---2-0-----|   x2
A:2-------2------2--|
E:------------------|

G:---------------------|
D:---------------------|
A:---------------------|
E:333333333333333-2222-|

       _______________
       Orchestra part      over at (3:06)
       ---------------

Outro (3:07)
G:-----------------------------------------------------------|
D:-----------------------------------------------------------|
A:-------222222--------222222-------------000-------------1~-|
E:333333--------333333--------000-222-333-----000-222-333----|

G:----------------------------------------------------------------|
D:----------------------------------------------------------------|
A:222-111-000-----------------444-222-111-000-----------------4---|
E:------------444-333-222-000-----------------444-333-222-000---2-|
            
Hard to play? Try these video lessons and learn fast. | Correct




comments powered by Disqus
↑ Back to top | Tablatures and chords are parodies/interpretations of the original songs. You may use it for private study, scholarship, research or language learning purposes only