» » »

Panic At The Disco, Build God Then Well Talk Bass tabs (ver.1)

Artists:  A B C D E F G H I J K L M N O P Q R S T U V W X Y Z # 

Build God Then Well Talk Bass tabs (ver.1)

Panic At The Disco Tabs
 Rating:
4/5 (4 votes)
Build God Then Well Talk lessons Tabs too difficult? Try these video lessons and learn fast
                Intro                          Follow whole song i order
(0:07)
G:----
D:4---
A:----
E:----

(0:10)
G:---------|
D:4-2------|
A:----5----|
E:------3--|

Verse         Just Listen for the timing
(0:14)
G:---------------------------------------------------------------------|
D:4----4-------7-------4---2-------2-4---4-------7-4-2-----------------|
A:---2-----7-------5-----------5--5----2-----7---------5---------------|
E:-------5---5---3---3---2---1---2---------5---5---------33-22-11-2222-|

Chorus
(0:32)
G:-----------------------------|
D:-----------------------------|  x2
A:22-55-10-10-77-22-77-55--2---|
E:-----------------------------|

Pre-Verse
(0:53)
G:----------------------------------------------------------------------------|
D:----------------------------------------------------------------------------|
A:--------------------------------------------------------------------------2-|
E:000-222-333-555-000-222-333-6-777-666-555-444-333-222-000-222222222222222---|

Verse
(1:10)
G:----------------------|
D:4-2-------------------|
A:----5--------------0--|
E:------3-3/2-2/1-1/2---|

1st time
G:------------------------------------|
D:--4-------7-------4---2---------2-4-|
A:2-----7-------5-----------5---5-----|
E:----5---5---3---3---2---1---2-------|

2nd time
G:-------------------------------------|
D:---4-------7-------4---2---------2-4-|
A:22-----7-------5-----------5---5-----|
E:-----5---5---3---3---2---1---2-------|

3rd time
G:
D:--4--------7-4-2--------------4---4--------7--------------------------|
A:2-----7----------5--------------2------7-------5----------------------|
E:----5---5----------3-----------------5---5---3---33-22-11-22-3333-222-|

Chorus
(1:49)
G:------------------------------|
D:------------------------------|   x2
A:22-55-10-10-77-22-77-55--2----|
E:------------------------------|

Bridge
(2:07)
G:------------------------------------------------------------------------------------------|
D:------------------------------------------------------------------------------------------|
A:--------------------------------------------------------------------------------------444-|
E:333333-777777-333333-777777-000-222-333-555-000-222-333-6-777-666-555-444-333-222-000-----|

G:-------------------------------------|
D:-------------------------------------|
A:-----------------------------------5-|
E:777-666-555-444-333-222-000-2-3------|

G:------------------|
D:------------------|   do this little part 2 times
A:2-5-10-7-2-7-5--2-|
E:------------------|

G:---------------------|
D:---------------------|
A:---------------------|
E:333333333333333-2222-

       _______________
       Orchestra part      over at (3:06)
       ---------------

Outro (3:07)
G:----------------------------------------------------------|
D:----------------------------------------------------------|
A:----------------------------------------------------------|
E:333333-777777-333333-777777-000-222-333-555-000-222-333-6-|

G:----------------------------------------------------------------|
D:----------------------------------------------------------------|
A:----------------------------444-----------------------------4---|
E:777-666-555-444-333-222-000-----777-666-555-444-333-222-000---2-|
            
Submit corrections

comments powered by Disqus
↑ Back to top | Panic At The Disco Bass for Build God Then Well Talk. Lyrics for acoustic guitar and electric guitar. Tablatures and chords are parodies/interpretations of the original songs. You may use it for private study, scholarship, research or language learning purposes only