» » »

Panic At The Disco, New Perspective Chords (ver.1)

Artists:  A B C D E F G H I J K L M N O P Q R S T U V W X Y Z # 

New Perspective Chords (ver.1)

Panic At The Disco Tabs
 Rating:
4/5 (4 votes)
New Perspective lessons Tabs too difficult? Try these video lessons and learn fast
1
                -------------------------------------------------------------------------------
                             New Perspective - Panic! At The Disco
-------------------------------------------------------------------------------

I know the intro isnt exactly right, i tabbed this on an acoustic

Tuning: Standard

INTRO::
gtr 1 (gtr 2 plays synth part, gtr 3 plays chords, 
both come in on the second repeat.)
    B5   C5         D5        
e|--3--33333---333--3-3-3--33333-333333333-----------------------------------|
B|--3--33333---545--5-5-5--33333h555555555-----------------------------------|
G|--4--44444---444--4-4-4--44444-444444444-----------------------------------|x3
D|--5--55555---555--5-5-5--55555-555555555-----------------------------------|
A|---------------------------------------------------------------------------|
E|---------------------------------------------------------------------------|

synth part (it sounds a little oriental on guitar)
let it ring
Gtr 2
e|-/7--5--3--0--3--0-3--5-3-|
B|-/8--5--3--0--3--0-3--5-3-|
G|--------------------------|x2
D|--------------------------|
A|--------------------------|
E|--------------------------|



VERSE::
           G                Em
I feel the salty waves come in
            C5               Cm6
I feel them crash against my skin
      G            Em              C5                 Cm6
And I smile as I respire because I know they'll never win
          G             Em
There's a haze above my TV
             C5           Cm6
That changes everything I see
             G          Em
And maybe if I continue watching
              C5                Cm6
I'll lose the traits that worry me

C5
Can we fast-forward to go down on me?



CHORUS::
G              Em
Stop there and let me correct it
  C5                       Cm6
I wanna live a life from a new perspective
G                        Em
You come along because I love your face
         C5          Cm6               
And I'll admire your expensive taste
    G5        Em      
And who cares divine intervention
  C5                      Cm6
I wanna be praised from a new perspective
    G5                     Em
But leaving now would be a good idea
            C5            Cm6       
So catch me up on getting out of here



VERSE::

Taking everything for granted but we still respect the time
We move along with some new passion knowing everything is fine
And I would wait and watch the hours fall in a hundred separate lines
But I regain repose and wonder how I ended up inside



{CHORUS}


BRIDGE::
E5                           C5
More to the point, I need to show
                        G5
How much I can come and go
G5
Other plans fell through
    D5
And put a heavy load on you
E5                                  C5
I know there's no more that need be said
                              G5
When I'm inching through your bed
                   B5
Take a look around instead and watch me go

B5 C5 B5 C5



CHORUS::
to the end.

please post corrections, and unlike others, i will edit the tab.


| /  slide up
| \  slide down
| h  hammer-on
| p  pull-off
| ~  vibrato
| +  harmonic
| x  Mute note
===============================================================================
            
Submit corrections

comments powered by Disqus
↑ Back to top | Panic At The Disco Chords for New Perspective. Lyrics for acoustic guitar and electric guitar. 1 Tablatures and chords are parodies/interpretations of the original songs. You may use it for private study, scholarship, research or language learning purposes only