» » »

Panda, Los Malaventurados No Lloran Tabs (ver.2)

Artists:  A B C D E F G H I J K L M N O P Q R S T U V W X Y Z # 

Los Malaventurados No Lloran Tabs (ver.2)

Panda Tabs
 Rating:
4/5 (4 votes)
Los Malaventurados No Lloran lessons Tabs too difficult? Try these video lessons and learn fast
1
                PXNDX
Los malaventurados no lloran
Guitarra 1 (Arturo)
Guitarra 2 (Pepe)

Intro
Guitarra 2
|-0-----0-----11-----------------------|
|-2-----0-----12-----5-----5---4-----4-|
|-2-----1-----13-------6---------4-----|
|-2-----2-----13---------6---------4---|
|-0-----2-----11-----------------------|

Verso
Guitarra 2
|-------------------------4---------------------|
|-----------------9-------4---5-----5---4-----4-|
|-----6-------------9-----4-----6---------4-----|
|-------7-------9-----9---6-------6---------4---|
|---7-----7---7-----------6---------------------|
|-5-----------------------4---------------------|

Pre-coro
Guitarras 1 y 2
|--------------------------------------|
|--------------------------------------|
|----------99999999----------5555-3333-|
|-77777777-99999999-55555555-5555-3333-|
|-77777777-77777777-55555555-3333-1111-|
|-55555555----------33333333-----------|

Coro
Guitarras 1 y 2
|----------------------------------------------|
|----------------------------------------------|
|------------99-999-999------------5-555-3-333-|
|-77-777-777-99-999-999-55-555-555-5-555-3-333-|
|-77-777-777-77-777-777-55-555-555-3-333-1-111-|
|-55-555-555------------33-333-333-------------|

Continuación
Guitarra 2
|-0-----0-----11-----------------------|
|-2-----0-----12-----5-----5---4-----4-|
|-2-----1-----13-------6---------4-----|
|-2-----2-----13---------6---------4---|
|-0-----2-----11-----------------------|

Verso 2
Guitarra 2
|-------------------------4---------------------|
|-----------------9-------4---5-----5---4-----4-|
|-----6-------------9-----4-----6---------4-----|
|-------7-------9-----9---6-------6---------4---|
|---7-----7---7-----------6---------------------|
|-5-----------------------4---------------------|

Pre-coro
Guitarras 1 y 2
|--------------------------------------|
|--------------------------------------|
|----------99999999----------5555-3333-|
|-77777777-99999999-55555555-5555-3333-|
|-77777777-77777777-55555555-3333-1111-|
|-55555555----------33333333-----------|

Coro
Guitarras 1 y 2
|----------------------------------------------|
|----------------------------------------------|
|------------99-999-999------------5-555-3-333-|
|-77-777-777-99-999-999-55-555-555-5-555-3-333-|
|-77-777-777-77-777-777-55-555-555-3-333-1-111-|
|-55-555-555------------33-333-333-------------|

Con distorcionador
Guitarra 2   
|------------------------------------------------------|
|---------6--------------------------------------------|
|-4---7-------7---9---13---11---13---14---13---14---13-|
|------------------------------------------------------|
|------------------------------------------------------|
|------------------------------------------------------|

|------------------------------------------------------|
|---------6--------------------------------------------|
|-4---7-------7---9---13---11---13---14---13---14---13-|
|------------------------------------------------------|
|------------------------------------------------------|
|------------------------------------------------------|

|--------------------------------------|
|--------------------------------------|
|--------------------------------------|
|----------99999999----------5555-3333-|
|-77777777-77777777-55555555-3333-1111-|
|-55555555----------33333333-----------|
  ........ ........ ........ .... ....
                p.m.

Guitarras 1 y 2
|----------------------------------------------|
|----------------------------------------------|
|------------99-999-999------------5-555-3-333-|
|-77-777-777-99-999-999-55-555-555-5-555-3-333-|
|-77-777-777-77-777-777-55-555-555-3-333-1-111-|
|-55-555-555------------33-333-333-------------|

Guitarras 1 y 2
|----------------------------------------------|
|----------------------------------------------|
|------------99-999-999------------5-555-3-333-|
|-77-777-777-99-999-999-55-555-555-5-555-3-333-|
|-77-777-777-77-777-777-55-555-555-3-333-1-111-|
|-55-555-555------------33-333-333-------------|

Ahí después les mando lo que me falta por que no lo he sacado bien 
            
Submit corrections

comments powered by Disqus
↑ Back to top | Panda Tabs for Los Malaventurados No Lloran. Lyrics for acoustic guitar and electric guitar. 1 Tablatures and chords are parodies/interpretations of the original songs. You may use it for private study, scholarship, research or language learning purposes only