» » »

Los Malaventurados No Lloran Tabs (ver.1)

Artists:  A B C D E F G H I J K L M N O P Q R S T U V W X Y Z # 

Los Malaventurados No Lloran Tabs (ver.1)

Panda
Rating:
0/5 (0 votes)

Hard to play? Try these video lessons and learn fast.
                
Riff:

Guitarra (con Chorus)
e|-4---------------3-------------------------------|
b|-4------8--------3----------4--------4--3--------|
g|-x------8--------3-------------5-----------3-----|
d|-x------8------555----------------5-----------5--|
a|-3------6------555-------------------------------|
E|-4-------------333-------------------------------|
   U      D      DUD

Bajo
g|--------------------------------------------------------------------|
d|-----------(X2)--------------(X2)------------(X2)------3-5------3-5-|
a|-----------------6--10--8--6-------------3-5------3--6-----1--6-----|
E|-4--8--6--4------------------------3--6-----------------------------|

PreCoro:
Guitarra
|-------------------------------------| En el bajo solo es el bajeo
|-------------------------------------| de estos acordes
|----------88888888----------55553333-|
|-66666666-88888888-55555555-55553333-|
|-66666666-66666666-55555555-33331111-|
|-44444444----------33333333----------|

Coro:
Guitarra
|------------------------------------------------------------------|
|------------------------------------------------------------------|
|-----------------88x8-8x8-8x8-8x8----------------55x5-5x533x3-3x3-|
|-66x6-6x6-6x6-6x688x8-8x8-8x8-8x855x5-5x5-5x5-5x555x5-5x533x3-3x3-|
|-66x6-6x6-6x6-6x666x6-6x6-6x6-6x655x5-5x5-5x5-5x533x3-3x311x1-1x1-|
|-44x4-4x4-4x4-4x4----------------33x3-3x3-3x3-3x3-----------------|

Bajo
Riff
            
Hard to play? Try these video lessons and learn fast. | Correct




comments powered by Disqus
↑ Back to top | Tablatures and chords are parodies/interpretations of the original songs. You may use it for private study, scholarship, research or language learning purposes only