>
 >
Los Malaventurados No Lloran

Los Malaventurados No Lloran Bass Tabs

Panda - Los Malaventurados No Lloran chords, tabs, tablatures, lyrics

Guitar lessons | Add/correct | Request | Top 50 tabs Artists:  A B C D E F G H I J K L M N O P Q R S T U V W X Y Z 0-9

Los Malaventurados No Lloran Bass Tabs – Panda

CD, Sheet music, Poster

Do you like Los Malaventurados No Lloran? Share with your friends now
Bass TabsBass Tabs v2Bass Tabs v3ChordsTabsTabs v2Tabs v3Tabs v4Tabs v5Tabs v6Ukulele
hola esta es una version para bajo de la cancion de Pxndx los malaventurados no
Itro

G|-------------------------------------------------------------------------|
D|-----------------------------------------------------------------5--33--1|
A|-------------------------------------------------------------------------|
E|4-8-6-4-8-6-4-11-15-13-11-15-13-11-3-6-8-10-3-6-8-10-8-13-13-15-6--------|

verso es igual al intro asi q repitelo 2 veces 
G|-------------------------------------------------------------------------|
D|-----------------------------------------------------------------5--33--1|
A|-------------------------------------------------------------------------|
E|4-8-6-4-8-6-4-11-15-13-11-15-13-11-3-6-8-10-3-6-8-10-8-13-13-15-6--------|

        x 2
precoro 
G |------------------|-------------------------|
D |------------------|-------------------------|
A |------------------|-------------------------|
E |--4-4-4-4-4-4-4-4-|-11-11-11-11-11-11-11-11-|

G |-------- --------|------------------|
D |-----------------|------------------|
A |------- ---------|------------------|
E |-3-3-3-3-3-3-3-3-|-8-8-8-8--6-6-6-6-| 

coro q es igual al intro

G|-------------------------------------------------------------------------|
D|-----------------------------------------------------------------5--33--1|
A|-------------------------------------------------------------------------|
E|4-8-6-4-8-6-4-11-15-13-11-15-13-11-3-6-8-10-3-6-8-10-8-13-13-15-6--------|

despues verso con el intro x 2
G|-------------------------------------------------------------------------|
D|-----------------------------------------------------------------5--33--1|
A|-------------------------------------------------------------------------|
E|4-8-6-4-8-6-4-11-15-13-11-15-13-11-3-6-8-10-3-6-8-10-8-13-13-15-6--------|

precoro 
G |------------------|-------------------------|
D |------------------|-------------------------|
A |------------------|-------------------------|
E |--4-4-4-4-4-4-4-4-|-11-11-11-11-11-11-11-11-|

G |-------- --------|------------------|
D |-----------------|------------------|
A |------- ---------|------------------|
E |-3-3-3-3-3-3-3-3-|-8-8-8-8--6-6-6-6-|  

Interludio
G |----------------------------|
D |----------------------------|
A |----------------------------|
E |-4-4-4-8-8-6-6-4-4-4-8-8-6-6|

G |----------------------------------------------|
D |----------------------------------------------|
A |----------------------------------------------|
E |11-11-11-15-15-15-13-13-11-11-11-15-5-13-13-11|-


G |-------------------------------|------------------------------------|
D |-------------------------------|------------------------------------|
A |-------------------------------|------------------------------------|
E |-3-3-3-6-6-8-8-3-3-3-6-6-8-8-3-|-8-8-8-13-13-13-15-16-6-6-6-11-14-13|

G |-----------------|-----------------|-----------------|-----------------|
D |-----------------|-----------------|-----------------|-----------------|
A |-----------------|-----------------|-----------------|-----------------|
E |-4-4-4-4-4-4-4-4-|-0-0-0-0-0-0-0-0-|-3-3-3-3-3-3-3-3-|-8-8-8-8-6-6-6-6-|

G |----------|----------|----------|----------|
D |----------|----------|----------|----------|
A |----------|----------|----------|-33331111-|
E |-44444444-|-00000000-|-33333333-|----------|





Comments


Popular Panda tabs & chords
Casi Nula Autoestima Bass Tabs
Mi Huracan Llevaba Tu Nombre Bass Tabs
Abigail Chords
Nuestra Afliccion Chords
Los Malventurados No Lloran Tabs
Mi Huracan Llevaba Tu Nombre Tabs
Si Supieras Tabs
So Violento So Macabro Intro Tabs
Amnistia Ukulele
Antes De Colgar Ukulele


Song lyrics



↑ Back to top | Tablatures and chords are parodies/interpretations of the original songs. You may use it for private study, scholarship, research or language learning purposes only
© 2014 AZChords.com Contact us | Privacy policy | DMCA | Add/correct tabs | Request tabs | Top 50 tabs