>
 >
Los Malaventurados No Lloran 2

Los Malaventurados No Lloran 2 Bass Tabs

Panda - Los Malaventurados No Lloran 2 chords, tabs, tablatures, lyrics

Guitar lessons | Add/correct | Request | Top 50 tabs Artists:  A B C D E F G H I J K L M N O P Q R S T U V W X Y Z 0-9

Los Malaventurados No Lloran 2 Bass Tabs – Panda

CD, Sheet music, Poster

Do you like Los Malaventurados No Lloran 2? Share with your friends now
Bass TabsBass Tabs v2Bass Tabs v3ChordsTabsTabs v2Tabs v3Tabs v4Tabs v5Tabs v6Ukulele
Intro                                                 


                                                       P.M       P.M
G |----------------|---0------------|----------------|------------------|
D |----------------|-1---3-11-0-3-1-|-------0-----0--|-3-3-/5-6--3-3-/1-|
A |---3-1----3-1---|----------------|---1-3----1-3-3-|----------1-------|
E |-4-----44-----4-|----------------|-3------3-------|------------------|
                                                      
Verso 


                                                       P.M       P.M
G |----------------|---0------------|----------------|------------------|
D |----------------|-1---3-11-0-3-1-|-------0-----0--|-3-3-/5-6--3-3-/1-|
A |---3-1----3-1---|----------------|---1-3----1-3-3-|----------1-------|
E |-4-----44-----4-|----------------|-3------3-------|------------------|
                         
                                                       P.M       P.M
G |----------------|---0------------|----------------|------------------|
D |----------------|-1---3-11-0-3-1-|-------0-----0--|-3-3-/5-6--3-3-/1-|
A |---3-1----3-1---|----------------|---1-3----1-3-3-|----------1-------|
E |-4-----44-----4-|----------------|-3------3-------|------------------|
                         
pre-coro

G |--------------------------|--------------------------|
D |--------------------------|--------------------------|
A |--------------------------|-(6)(6)(6)(6)(6)(6)(6)(6)-|
E |-(4)(4)(4)(4)(4)(4)(4)(4)-|--------------------------|

G |--------------------------|---------------------------|
D |--------------------------|---------------------------|
A |--------------------------|-(3)(3)(3)(3)/(1)(1)(1)(1)-|
E |-(3)(3)(3)(3)(3)(3)(3)(3)-|---------------------------|

Coro
                                                       P.M       P.M
G |----------------|---0------------|----------------|------------------|
D |----------------|-1---3-11-0-3-1-|-------0-----0--|-3-3-/5-6--3-3-/1-|
A |---3-1----3-1---|----------------|---1-3----1-3-3-|----------1-------|
E |-4-----44-----4-|----------------|-3------3-------|------------------|
                        
                                                       P.M       P.M
G |----------------|---0------------|----------------|------------------|
D |----------------|-1---3-11-0-3-1-|-------0-----0--|-3-3-/5-6--3-3-/1-|
A |---3-1----3-1---|----------------|---1-3----1-3-3-|----------1-------|
E |-4-----44-----4-|----------------|-3------3-------|------------------|
                         
Verso 
                                                       P.M       P.M
G |----------------|---0------------|----------------|------------------|
D |----------------|-1---3-11-0-3-1-|-------0-----0--|-3-3-/5-6--3-3-/1-|
A |---3-1----3-1---|----------------|---1-3----1-3-3-|----------1-------|
E |-4-----44-----4-|----------------|-3------3-------|------------------|
                         
                                                       P.M       P.M
G |----------------|---0------------|----------------|------------------|
D |----------------|-1---3-11-0-3-1-|-------0-----0--|-3-3-/5-6--3-3-/1-|
A |---3-1----3-1---|----------------|---1-3----1-3-3-|----------1-------|
E |-4-----44-----4-|----------------|-3------3-------|------------------|
                         
pre-coro
G |--------------------------|--------------------------|
D |--------------------------|--------------------------|
A |--------------------------|-(6)(6)(6)(6)(6)(6)(6)(6)-|
E |-(4)(4)(4)(4)(4)(4)(4)(4)-|--------------------------|

G |--------------------------|---------------------------|
D |--------------------------|---------------------------|
A |--------------------------|-(3)(3)(3)(3)/(1)(1)(1)(1)-|
E |-(3)(3)(3)(3)(3)(3)(3)(3)-|---------------------------|

Coro
                                                       P.M       P.M
G |----------------|---0------------|----------------|------------------|
D |----------------|-1---3-11-0-3-1-|-------0-----0--|-3-3-/5-6--3-3-/1-|
A |---3-1----3-1---|----------------|---1-3----1-3-3-|----------1-------|
E |-4-----44-----4-|----------------|-3------3-------|------------------|
                         
Verso 
G |---------------|---------------|---------------|---------------|
D |---------------|---------------|---------------|---------------|
A |---------------|---------------|---------------|-111-11111-111-|
E |-444-44444-444-|-000-00000-000-|-111-11111-111-|---------------|

G |----------------|----------------|----------------|----------------|
D |----------------|----------------|----------------|----------------|
A |----------------|----------------|----------------|-333-3-1111-111-|
E |-444-4-4444-444-|-000-0-0000-000-|-111-1-1111-111-|----------------|

G |-----------------|-----------------|------------------|------------------|
D |-----------------|-----------------|------------------|------------------|
A |-----------------|-----------------|------------------|-3333333311111111-|
E |-444444444444444-|-000000000000000-|-3333333333333333-|------------------|

G |-----------------|-----------------|------------------|------------------|
D |-----------------|-----------------|------------------|------------------|
A |-----------------|-----------------|------------------|-3333333311111111-|
E |-444444444444444-|-000000000000000-|-3333333333333333-|------------------|

Interludio
G |-----------------|----00-----00----|-----------------|------01--------|
D |-----------------|-111--33111--331-|-----------------|----33-----1132-|
A |----3311---3311--|-----------------|----1133---1133--|-333----111-----|
E |-444----444----4-|-----------------|-333----333----3-|----------------|

G |----------|----------|----------|----------|
D |----------|----------|----------|----------|
A |----------|----------|----------|-33331111-|
E |-44444444-|-00000000-|-33333333-|----------|

outro

G |--------------|--------------|--------------|-------------|
D |--------------|--------------|--------------|-------------|
A |--------------|--------------|--------------|-3-333-1-111-|
E |-4-44-44-44-4-|-0-00-00-00-0-|-3-33-33-33-3-|-------------|

G |---------------|-----------|
D |---------------|-----------|
A |---------------|-----------|
E |-444-4444-444--|-4-44-4-44-|





Comments


Popular Panda tabs & chords
Adheridos Separados 1 Bass Tabs
Amnistia 1 Chords
Fascinante Chords
Ahh Pero Como Vendo Cassettes Tabs
Ando Pedo Y Ella Esta Aqui Tabs
Buen Dia Tabs
Del Rapto Y Otros Pormenores Intro Tabs
Oro Tabs
Seor Payaso Tabs
Ya No Jalaba 1 Tabs


Song lyrics



↑ Back to top | Tablatures and chords are parodies/interpretations of the original songs. You may use it for private study, scholarship, research or language learning purposes only
© 2014 AZChords.com Contact us | Privacy policy | DMCA | Add/correct tabs | Request tabs | Top 50 tabs