>
 >
No More Tear

No More Tear Guitar Tabs

Ozzy Osbourne - No More Tear chords, tabs, tablatures, lyrics

Guitar lessons | Add/correct | Request | Top 50 tabs Artists:  A B C D E F G H I J K L M N O P Q R S T U V W X Y Z 0-9

No More Tear Guitar Tabs – Ozzy Osbourne

CD, Sheet music, Poster

Do you like No More Tear? Share with your friends now
TabsTabs v2Tabs v3
Ozzy Osbourne - No More Tears

Gtr I (C# G# C# F# A# D#) - 'Zakk Wylde - rhythm heavy dist electric'
Gtr II (C# G# C# F# A# D#) - 'Zakk Wylde - lead heavy dist electric'

Intro
  Q=104
 4/4
  Gtr II
  Wx6          E  Q    E  H       H    Q  E  E
|------------|---10\--13s14\----|---------------|
|------------|---10\--13s14\----|---------------|
|------------|--------13s14\----|-----------15\-|
|------------|------------------|-----------15\-|
|------------|------------------|---------------|
|------------|------------------|---------------|


   W           H    E Q   E    H     H      W
|------------|--------------|-------------|------|
|------------|--------------|-------------|------|
|-14\--------|--------8s=12s|=10\---------|------|
|-14\--------|--------8s=12s|=10\---------|------|
|------------|--------------|-------------|------|
|------------|--------------|-------------|------|


                                                   ~~~
  Q  H      Q      H     Q   E  E    +E   E  E  E  Q.   E
|--------------||-----------------|------------------------|
|--------------||o----------------|------------------------|
|----3/----10--||--7----12S=11S12-|-(12)-11-------------7s=|
|----3/----10--||--7--------------|---------12----10----7s=|
|--------------||o----------------|------------12-10-------|
|--------------||-----------------|------------------------|


                                                  Verse
                                 Gtrs I, II
   ~~                ~~
   H     +E  Q.      Q   H.          E E Q  H      Wx2
|-----------------|-----13\-------||-------------|--------|
|-----------------|-----13\------o||-------------|--------|
|-10----(10)-7----|-12------------||-------------|--------|
|-10----(10)-7----|-12------------||-0-----------|--------|
|-----------------|--------------o||-0-----------|--------|
|-----------------|---------------||-0-----------|--------|


  $
  Gtr I
                                                ~~~
  H    E E E E   Q  E E E E E E   +Q   E E E E +Q     E E Q  H
|--------------|----------------|-------------------|-------------|
|--------------|----------------|-------------------|-------------|
|--------------|----------------|-------------------|-------------|
|--------------|-6------------6-|-(6)---------------|-0-----------|
|--------0-3-0-|-6--5-3-5-3---6-|-(6)--5------------|-0-----------|
|--------0-3-0-|-6--5-3-5-3-0-6-|-(6)--5-3-5-3-(3)--|-0-----------|


                                     ~~
  H    E E   E E    Q   E  E  E  Q   E    +Q    E  E  E  Q.       E E Q  H
|----------------|---------------------|----------------------||--------------|
|----------------|---------------------|----------------------||o-------------|
|--------0-/10-0-|-13--12-10-12-10--13-|-(13)--12-10-12-10\---||--------------|
|--------0-/10-0-|-13--12-10-12-10--13-|-(13)--12-10-12-10\---||--0-----------|
|----------------|---------------------|----------------------||o-0-----------|
|----------------|---------------------|----------------------||--0-----------|


                                                ~~~
  H    E E E E   Q  E E E E E E   +Q   E E E E +Q     E E Q  H
|--------------|----------------|-------------------|-------------|
|--------------|----------------|-------------------|-------------|
|--------------|----------------|-------------------|-------------|
|--------------|-6------------6-|-(6)---------------|-0-----------|
|--------0-3-0-|-6--5-3-5-3---6-|-(6)--5------------|-0-----------|
|--------0-3-0-|-6--5-3-5-3-0-6-|-(6)--5-3-5-3-(3)--|-0-----------|


                                                                Pre-Chorus
                                     ~~~~~~~~~
  H    E E   E E    Q   E  E  E  Q   E    +Q    E  E  E  Q.      H    E E E E
|----------------|---------------------|----------------------||--------------|
|----------------|---------------------|----------------------||------------5-|
|--------0-/10-0-|-13--12-10-12-10--13-|-(13)--12-10-12-10\---||------------4-|
|--------0-/10-0-|-13--12-10-12-10--13-|-(13)--12-10-12-10\---||-0----------2-|
|----------------|---------------------|----------------------||-0----------2-|
|----------------|---------------------|----------------------||-0----0-0-0-2-|


                                                  |-3-| |-3-| |-3-| |-3--|
  +Q   E E E E E S S   Q  E E E E E E   +Q.   S S S S S S S S S S S S S +S
|--------------------|----------------|--------------------------------------|
|-(5)----------------|-6--------------|--------------------------------------|
|-(4)----------------|-5------------3-|-(3)-------3h5p3h5p3h5p3h5p3h5p3-(3)--|
|-(2)----------------|-3------------3-|-(3)---3S5----------------------------|
|-(2)----------------|-5------------1-|-(1)----------------------------------|
|-(2)--0-0-0-0-0-0-0-|-3--0-0-0-0-0---|--------------------------------------|


  H    E E E E   +Q   E E E E E S S
|--------------|--------------------|
|------------5-|-(5)----------------|
|------------4-|-(4)----------------|
|-0----------2-|-(2)----------------|
|-0----------2-|-(2)----------------|
|-0----0-0-0-2-|-(2)--0-0-0-0-0-0-0-|


                     |-3-| |-3--|
  Q  E E E E E E   E S S S S S +S  E +H
|----------------|---------------------------|
|-6--------------|---------------------------|
|-5------------3-|-3-3h5p3h5p3-(3)-4-(4)\----|
|-3------------3-|-3---------------4-(4)\----|
|-5------------1-|-1-------------------------|
|-3--0-0-0-0-0---|---------------------------|


                               Chorus
  ~~
  H.      Q      Q   H.         E Q  E Q  E E   +E  E Q  E E E E
|-------------|-----13\------||---------------|------------------|
|-9-----------|-10--13\------||---------------|------------------|
|-9-------5/--|-10-----------||---7----5----4-|-(4)---3----------|
|-9-------5/--|-10-----------||-0----0----0---|-----0-3----------|
|-------------|--------------||---------------|----------5-6-5-3-|
|-------------|--------------||---------------|----------5-6-5-3-|


  E Q  E Q  E E   +E  E Q  E E E E   E Q  E Q  E E   +E  E Q  E E E E
|---------------|------------------|---------------|------------------|
|---------------|------------------|---------------|------------------|
|---7----5----4-|-(4)---3----------|---7----5----4-|-(4)---3----------|
|-0----0----0---|-----0-3----------|-0----0----0---|-----0-3----------|
|---------------|----------5-6-5-3-|---------------|----------5-6-5-3-|
|---------------|----------5-6-5-3-|---------------|----------5-6-5-3-|


                                 To Coda
  E Q  E Q  E E   +E  E Q  E E E E
|---------------|-------------------||
|---------------|------------------o||
|---7----5----4-|-(4)---3-----------||
|-0----0----0---|-----0-3-----------||
|---------------|----------5-6-5-3-o||
|---------------|----------5-6-5-3--||


  W          +W           +W           W
|----------|------------|------------|------||
|----------|------------|------------|------||
|----------|------------|------------|------||
|-0--------|-(0)--------|-(0)--------|------||
|-0--------|-(0)--------|-(0)--------|------||
|-0--------|-(0)--------|-(0)--------|------||


 Interlude
  Q=76
              3/4        4/4
  Wx4          W          Wx4
|------------|----------|--------||
|------------|----------|--------||
|------------|----------|--------||
|------------|----------|--------||
|------------|----------|--------||
|------------|----------|--------||


 Guitar Solo
   ~~
   H     E.  S  +E   E    a     +Q    Q   Q  Q     H     +E   E     +E   S  S
|----------------------|------------------------|-----------------------------|
|-------------------10-|------------------------|-----------------------------|
|-11----11--12-(12)----|-12b14-(14)--12--11--9--|-10----(10)-12b14-(14)-12p10-|
|----------------------|------------------------|-----------------------------|
|----------------------|------------------------|-----------------------------|
|----------------------|------------------------|-----------------------------|


                                   ~~
   a     +H      Q   E     S  S    H     S  E.  +E   E
|-------------------------------|----------------------|
|-------------------------------|-------------------10-|
|-12b14-(14)----12--12b14-12p10-|-11----11-12--(12)----|
|-------------------------------|----------------------|
|-------------------------------|----------------------|
|-------------------------------|----------------------|


   a     +H.       +S   E     T  T    a     +H.       E     S  S
|----------------------------------|-----------------15b17-15p13---|
|-13b15-(15)------(15)-15b17-15p13-|-15b17-(17)--------------------|
|----------------------------------|-------------------------------|
|----------------------------------|-------------------------------|
|----------------------------------|-------------------------------|
|----------------------------------|-------------------------------|



   E     a     +Q.      a     +Q     a     +Q
|-15b17-15b17-(17)-----15b17-(17)---15b17-(17)---|
|------------------------------------------------|
|------------------------------------------------|
|------------------------------------------------|
|------------------------------------------------|
|------------------------------------------------|
|
| Gtr II
|  E            E  E E         E  E         E  E  E
|------------------------------------------------|
|------------------------------------------------|
|------------------------------------------------|
|--5------------5--5-5---------5--5---------5--5-|
|--5------------5--5-5---------5--5---------5--5-|
|--5------------5--5-5---------5--5---------5--5-|



            ~~~~
   a     +Q     a     +Q     S     S  S  S  E.   S
|-15b17-(17)---15b17-(17)---15b17-15-13-14-------x-|
|--------------15b17-(17)------------------15----x-|
|--------------------------------------------------|
|--------------------------------------------------|
|--------------------------------------------------|
|--------------------------------------------------|
|
|
|         E  E         E  E  E        E     E  E
|--------------------------------------------------|
|--------------------------------------------------|
|--------------------------------------------------|
|---------5--5---------5--5--5--------5-----5--5---|
|---------5--5---------5--5--5--------5-----5--5---|
|---------5--5---------5--5--5--------5-----5--5---|



 a tempo Q=104
   a     +Q    S  S  S  S     +S   S  S  S  S   S  S  S
|-------------10------------------10--------------------|
|-13b15-(15)-----13-10----------------------------12----|
|----------------------12b14-(14)----12-12-10-----12----|
|----------------------------------------------12----12-|
|-------------------------------------------------------|
|-------------------------------------------------------|
|
|         Q    Q               E      E    +E      E
|-------------------------------------------------------|
|-------------------------------------------------------|
|-------------------------------------------------------|
|---------3----3---------------5------3----(3)-----0----|
|---------3----3---------------5------3----(3)-----0----|
|---------3----3---------------5------3----(3)-----0----|


                    |---3---|
   E       S  S  S  S  S    S  S  S  S  S     +S   Q
|-----------------------------------------------------|
|-10b10.5------------------------12----10----(10)-----|
|-10---------------13-12---10----12----10b11-(11)-----|
|---------12-10-12------------12----12------------12--|
|-----------------------------------------------------|
|-----------------------------------------------------|
|
| +Q             E       E        E     E          Q
|-----------------------------------------------------|
|-----------------------------------------------------|
|---------------------------------5-------------------|
|-(0)------------0----------------5-----0----------0--|
|-(0)------------0----------------3-----0----------0--|
|-(0)------------0-------0--------------0----------0--|


   |--3--|
   S  S  S  S  S S  S  S  S  S  S  S     +S   S   S  E
|------------------------------------------------------|
|-------------12------------12----10----(10)--------13-|
|-13p12p10----12---12-10----12----10b11-(11)-----------|
|----------12------------12----12------------12--10----|
|------------------------------------------------------|
|------------------------------------------------------|
|
|  Q             Q           E     E         +E      E
|------------------------------------------------------|
|------------------------------------------------------|
|------------------------------------------------------|
|--3-------------3-----------5-----3---------(3)-----0-|
|--3-------------3-----------5-----3---------(3)-----0-|
|--3-------------3-----------5-----3---------(3)-----0-|


        |--3--|           |--3--|
   +E   S  S  S  S     S  S  S  S       S  S     S  S  S  S  E
|------10-------------10---------------------------------------|
|-(13)----13-10----------13p10---------10----------------------|
|---------------12b14----------12b12.5----12b14-12p10-12p10----|
|-----------------------------------------------------------12-|
|--------------------------------------------------------------|
|--------------------------------------------------------------|
|
|  +Q            E        E             E        E     Q
|--------------------------------------------------------------|
|--------------------------------------------------------------|
|---------------------------------------5----------------------|
|--(0)-----------0----------------------5--------0-----0-------|
|--(0)-----------0----------------------3--------0-----0-------|
|--(0)-----------0--------0----------------------0-----0-------|


   a     +Q.     S     S  S  S  S  S  S     S  S  S
|-15b17-(17)----15b17-15-13----15----13b14-13----15b17--|
|---------------------------15----15----------15--------|
|-------------------------------------------------------|
|-------------------------------------------------------|
|-------------------------------------------------------|
|-------------------------------------------------------|
|
|         Q   Q           E     E    +E        E
|-------------------------------------------------------|
|-------------------------------------------------------|
|-------------------------------------------------------|
|---------3---3-----------5-----3----(3)-------0--------|
|---------3---3-----------5-----3----(3)-------0--------|
|---------3---3-----------5-----3----(3)-------0--------|


   +S   S  S     S  a     +Q     S     S  S     S  Q
|-(17)----15b17----15b17-(17)---15b17-15-13b14-13-----|
|------15-------15--------------------------------15--|
|-----------------------------------------------------|
|-----------------------------------------------------|
|-----------------------------------------------------|
|-----------------------------------------------------|
|
|   Q                      E  E  E        E        Q
|-----------------------------------------------------|
|-----------------------------------------------------|
|--------------------------------5--------------------|
|---0----------------------0-----5--------0--------0--|
|---0----------------------0-----3--------0--------0--|
|---0----------------------0--0-----------0--------0--|


   |--3--|  |--3--|  |--3--|  |--3--|  |--3--|  |--3--|  |--3--|  |--3--|
   S  S  S  S  S  S  S  S  S  S  S  S  S  S  S  S  S  S  S  S  S  S  S  S
|-13-10-13-10-------13-10-13-10-------13-10-13-10-------13-10-13-10--------|
|-------------13-10-------------13-10-------------13-10-------------13-10--|
|--------------------------------------------------------------------------|
|--------------------------------------------------------------------------|
|--------------------------------------------------------------------------|
|--------------------------------------------------------------------------|
|
|  W
|--------------------------------------------------------------------------|
|--------------------------------------------------------------------------|
|--------------------------------------------------------------------------|
|--3-----------------------------------------------------------------------|
|--3-----------------------------------------------------------------------|
|--3-----------------------------------------------------------------------|


   |--3--|  |--3--|  |--3--|  |--3--|  |--3--|  |--3--|  |--3--|  |--3--|
   S  S  S  S  S  S  S  S  S  S  S  S  S  S  S  S  S  S  S  S  S  S  S  S
|-15-13-15-13-------15-13-15-13-------15-13-15-13-------15-13-15-13-------|
|-------------15-13-------------15-13-------------15-13-------------15-13-|
|-------------------------------------------------------------------------|
|-------------------------------------------------------------------------|
|-------------------------------------------------------------------------|
|-------------------------------------------------------------------------|
|
|  W
|-------------------------------------------------------------------------|
|-------------------------------------------------------------------------|
|-------------------------------------------------------------------------|
|--5----------------------------------------------------------------------|
|--5----------------------------------------------------------------------|
|--5----------------------------------------------------------------------|


   |--3--|  |--3--|  |--3--|  |--3--|  |--3--|  |--3--|  |--3--|  |--3--|
   S  S  S  S  S  S  S  S  S  S  S  S  S  S  S  S  S  S  S  S  S  S  S  S
|-17-15-17-15-------17-15-17-15-------17-15-17-15-------17-15-17-15-------|
|-------------18-15-------------18-15-------------18-15-------------18-15-|
|-------------------------------------------------------------------------|
|-------------------------------------------------------------------------|
|-------------------------------------------------------------------------|
|-------------------------------------------------------------------------|
|
|  W
|-------------------------------------------------------------------------|
|-------------------------------------------------------------------------|
|--2----------------------------------------------------------------------|
|--2----------------------------------------------------------------------|
|--0----------------------------------------------------------------------|
|-------------------------------------------------------------------------|


   T  T  T  T  T  T  T  T  T  T  T  T  T  T  T  T  T  T  T  T  T  T  T  T  T  T  T  T  T  T  T  T
|-18-15-13----18-15-13----18-15-13----18-15-13----20-17-15----20-17-15----20-17-15----20-17-15----|
|----------15----------15----------15----------15----------17----------17----------17----------17-|
|-------------------------------------------------------------------------------------------------|
|-------------------------------------------------------------------------------------------------|
|-------------------------------------------------------------------------------------------------|
|-------------------------------------------------------------------------------------------------|
|
|  H                                               H
|-------------------------------------------------------------------------------------------------|
|-------------------------------------------------------------------------------------------------|
|--3-----------------------------------------------5----------------------------------------------|
|--3-----------------------------------------------5----------------------------------------------|
|--1-----------------------------------------------3----------------------------------------------|
|-------------------------------------------------------------------------------------------------|


  W
|-------------||
|-------------||
|-------------||
|-------------||
|-------------||
|-------------||
|
| E E Q  H
|-------------||
|-------------||
|-7-----------||
|-7-----------||
|-5-----------||
|-------------||


  Gtr II
  Wx3          H    E Q.     H    Q   E E
|------------|-------------|----------------|
|------------|-------------|-7----8\--7-8---|
|------------|--------5\---|-7--------------|
|------------|--------5\---|-7--------------|
|------------|-------------|----------------|
|------------|-------------|----------------|


                                                  D.S. al Coda
            ~~~~~~~~~~~~~~~~~~            ~~~
  +E  E E E H       H     +Q.   E     Q   Q   E q  E
|----------------|-----------------|-----15\---------||
|-(8)-7----------|-----------------|-----15\---------||
|-------7---5----|-10----(10)---9\-|-12--------------||
|---------7-5----|-10----(10)---9\-|-12------------0-||
|----------------|-----------------|---------------0-||
|----------------|-----------------|---------------0-||


   Outro
    &
    Gtr I
    Q  E E Q  E E   +E  E Q  E E E E  3x W
||----------------|-------------------||------*|
||o---------------|------------------o||------*|
||-----7---5----4-|-(4)---3-----------||-2----*|
||--0----0----0---|-----0-3-----------||-0----*|
||o---------------|----------5-6-5-3-o||-0----*|
||----------------|----------5-6-5-3--||-0----*|





Comments


Popular Ozzy Osbourne tabs & chords
Gets Me Thru Bass Tabs
Steal Away The Night Chords
Dee 4 Tabs
Dont Blame Me Tabs
Dreamer 6 Tabs
Gets Me Through 5 Tabs
I Dont Wanna Stop 2 Tabs
It Gets Me Through 1 Tabs
Lightning Strikes Tabs
Revelation (Mother Earth) Tabs


Song lyrics



↑ Back to top | Tablatures and chords are parodies/interpretations of the original songs. You may use it for private study, scholarship, research or language learning purposes only
© 2014 AZChords.com Contact us | Privacy policy | DMCA | Add/correct tabs | Request tabs | Top 50 tabs