» » »

No Easy Way Out Tabs (ver.2)

Artists:  A B C D E F G H I J K L M N O P Q R S T U V W X Y Z # 

No Easy Way Out Tabs (ver.2)

Ozzy Osbourne
Rating:
0/5 (0 votes)

Hard to play? Try these video lessons and learn fast.
                Intro & Main Riff
|----------------------------------|---------------------------|
|----------------------------------|---------------------------|
|------0-----0-0-------------------|---------------------------|
|----0-----0---0---repeat this 3x--|-then this->--3\-5-5-------|
|--3-----2-----1-------------------|--------------3\-5-5-------|
|----------------------------------|--------------1\-3-3-------|



chorus-w/dist.
-------------------------------------------------------------
-3-----5-----6----5-------3----5----6----8-------------------
-2-x-x-4-x-x-5-x-x4-------2-x-x4-x-x5-x-x7----0---0--0-------
-0-x-x-0-x-x-0-x-x0-------0-x-x0-x-x0-x-x0---0---0---0-------
-0-x-x-0-x-x-0-x-x0-x-x-x-0-x-x0-x-x0-x-x0--3---2----1-------
--------------------x-x-x------------------------------------

interlude-clean

-------------------------------------------------------------
---0---0---0---0---0---0---0---------------------------------
--0---0---0---0---0---0---0----------------------------------
-2---2---1---1---2---0---1----etc----------------------------
-------------------------------------------------------------
-------------------------------------------------------------
            
Hard to play? Try these video lessons and learn fast. | Correct




comments powered by Disqus
↑ Back to top | Tablatures and chords are parodies/interpretations of the original songs. You may use it for private study, scholarship, research or language learning purposes only