» » »

Ozzy Osbourne, Mr Crowley Tabs (ver.2)

Artists:  A B C D E F G H I J K L M N O P Q R S T U V W X Y Z # 

Mr Crowley Tabs (ver.2)

Ozzy Osbourne Tabs
Rating:
0/5 (0 votes)
Mr Crowley lessons Tabs too difficult? Try these video lessons and learn fast
                
---------------|--------------|-------------|--------------|------------------
---------------|--------------|-------------|--------------|------------------
-2-----3-------|--------------|--2----------|--------------|------------------
-------------3-|5---3---2---3-|-------------|------3---2---|------------------
-0-----1-------|--------------|-------------|--------------|------------------
-------------1-|3---1---0---1-|-------------|--------------|------------------
                                                                              

------------------|----------------|-------------------|-----------|----------
------------------|----------------|-------------------|-----------|----------
------------------|-2--------------|-7-----------------|-7---------|----------
-5---3-----2----3-|----------------|-7-----------------|-7---------|----------
------------------|----------------|-5----------0------|-5---------|----------
-3---1-----0----1-|----------------|-----------------1-|-----------|----------
                                                                              

----------------------------|------------------|--------------------|---------
----------------------------|------------------|--------------------|---------
----------------------------|------------------|--------------------|---------
-3------3-------------------|-3-----3----------|-5-------5--------5-|---------
-1------1------1--1--3--1--0|-1-----1---------1|-3-------3--------3-|---------
----------------------------|------------------|--------------------|---------
                                                                              

---------------|--------------------|-----------------------|---------|-------
--------5----6-|--------------------|-----5--6--5--6/8----6-|---------|-------
--------5----5-|--------------------|-----5--7--5--7/9----7-|5--5--5--|-------
--------5----7-|-7--------7---------|-5h7-------------------|5--5--5--|-------
-5---7---------|-5--------5---------|-----------------------|3--3--3--|-------
---------------|-------------------x|-----------------------|---------|-------
                                                                              

--------------|--------------|------------------------------------------|-----
--------------|--------------|-3h4p3-----3------------------------------|-----
-------5----5-|-3---3-------3|--------5-----5p3---3/2-------------------|-----
-------5----5-|-3---3-------3|-------------------------5--3--5p3---2----|-----
-x--x--3----3-|-1---1-------1|-----------------------------------------5|-----
--------------|--------------|------------------------------------------|-----
                                                                              

------------------------------|-------------|-----------------|---------------
------------------------------|-------------|-----------------|---------------
------------------------------|------5---5--|-3--------------3|---------------
--------------5--------------5|-0--2-5---5--|-3--------------3|---------------
-3------------3--------------3|------3---3--|-1--------------1|---------------
------------------------------|-------------|-----------------|---------------
  alright here's the first solo.....                                          

-------10----------------10-----------------10----------------10---------10|--
----10----13-10------10-----13--10------10------13-10------10----13--10----|--
-12-------------12-----------------12------------------12------------------|--
                                                                              

-13--10----10---------------------------------------------------------|-------
--------13-----13--10--13--10------10---------------------------------|-------
-------------------------------12-----12-10-12-10----10---------------|-------
--------------------------------------------------12----12-10-12-10---|-------
                                                                              

--------------------------------------------------------13-13-16-15-13|-------
----------------------------------10------10--10-13-15----------------|-------
----------------------10-10-10-12-----12------------------------------|-------
-10-----10---12-10-12-------------------------------------------------|-------
----12----------------------------------------------------------------|-------
                                                                              

-18--18p-16p-16-p-15----20----20p18p17----20---20---20---20---17---20|--------
                                                                              

-17h18p17---------------------------18p17p15--17-15--------|------------------
------------20h17p20---17h18p17-----------------------18p17|------------------
-----------------------------------------------------------|------------------
-----------------------------------------------------------|------------------
-----------------------------------------------------------|------------------
-----------------------------------------------------------|------------------
                                                                              

---------------------|----------------------------------15-|------------------
-15--17--15/13--15p13|----13-------------------------------|------------------
---------------------|-14----15-12-----12------------------|------------------
---------------------|--------------15----14p12---14-------|------------------
---------------------|-------------------------------------|------------------
---------------------|-------------------------------------|------------------
                                          full+1/2                            

-15---15---15--13--12h13p12-------12|---------------|-------------------------
----------------------------15------|-15------------|-------------------------
------------------------------------|---------------|-------------------------
------------------------------------|---------------|-------------------------
------------------------------------|---------------|-------------------------
------------------------------------|---------------|-------------------------
                                                                              

-13p10-----10-----10-13p10--10--10------10--13p10----10-------13p10---10------
--------13----13--------------------13------------13----13-10------13----13---
                                                                              

-10|-13p10-----10-----10--13p10------10---------13p10-----10---------|--------
---|-------13------13------------13-----13--10---------13----13--10--|--------
---|-----------------------------------------------------------------|--------
---|-----------------------------------------------------------------|--------
---|-----------------------------------------------------------------|--------
---|-----------------------------------------------------------------|--------
                                                                              

-13p10-----10-------|---------------------------------------------------------
-------13-----13--10|---------------------------------------------------------
--------------------|---------------------------------------------------------
--------------------|---------------------------------------------------------
--------------------|---------------------------------------------------------
--------------------|---------------------------------------------------------
            

comments powered by Disqus
↑ Back to top | Ozzy Osbourne Tabs for Mr Crowley. Lyrics for acoustic guitar and electric guitar. Tablatures and chords are parodies/interpretations of the original songs. You may use it for private study, scholarship, research or language learning purposes only