>
 >
Mama Im Coming Home 2

Mama Im Coming Home 2 Guitar Tabs

Ozzy Osbourne - Mama Im Coming Home 2 chords, tabs, tablatures, lyrics

Guitar lessons | Add/correct | Request | Top 50 tabs Artists:  A B C D E F G H I J K L M N O P Q R S T U V W X Y Z 0-9

Mama Im Coming Home 2 Guitar Tabs – Ozzy Osbourne

CD, Sheet music, Poster

Do you like Mama Im Coming Home 2? Share with your friends now
Tabs
Band- Ozzy Osbourne
Song- Mama Im Coming Home


          A5                   B5                   C5                   D5
      x 0 2 2 x x          x 2 4 4 x x          x 3 5 5 x x          x 5 7 7 x x

          E5                  E7+9                   B                   C#m
      0 2 2 x 0 0          0 7 6 7 8 x          x 2 4 4 4 x          x 4 6 6 5 x

Tunings
Gtr I (Eb Ab Db Gb Bb Eb) 
Gtr II (D# G# C# F# A# D#) 
Gtr III (D# G# C# F# A# D#) 
Gtr IV (Eb Ab Db Gb Bb Eb)

 Intro
  

 4/4   *with pick and fingers    *12 string arranged for 6
  Gtr I
|------12--------------------|---0---------0-------0---------0-----|
|---------12-----------------|-----0---------0-------0---------0---|
|------------11pb13r(11)-9---|-9-----8-(8)-----8-6-----4-(4)-----4-|
|----------------------------|-------------------------------------|
|----------------------------|-------------------------------------|
|--------------------------0-|-------------------------------------|


|---0---------0-------0---------0-----|----0---------0-------0---------0------|
|-----0---------0-------0---------0---|------0---------0-------0---------0----|
|-2-----1-(1)-----1-------------------|-/9-----8-(8)-----8-6-----4-(4)-----4--|
|-------------------4-----2-(2)-------|---------------------------------------|
|-------------------------------------|---------------------------------------|
|-----------------------------------0-|---------------------------------------|


                                       Verse
        E     N.C.        E     N.C.
|---0---0-(0)-0-------0---0-(0)-0-----|----0---------0-------0---------0------|
|-----0-0-(0)---0-------0-0-(0)---0---|------0---------0-------0---------0----|
|-2-----1-(1)-----1-------1-(1)-------|-/9-----8-(8)-----8-6-----4-(4)-----4--|
|-------------------4-----2-(2)-------|---------------------------------------|
|-------------------------------------|---------------------------------------|
|-----------------------------------0-|---------------------------------------|


        E     N.C.        E     N.C.    Asus2
|---0---0-(0)-0-------0---0-(0)-0-----|-------0-(0)-------------0-(0)--------|
|-----0-0-(0)---0-------0-0-(0)---0---|-------------0-----------------0------|
|-2-----1-(1)-----1-------1-(1)-----1-|-----2---------2-------2---------2----|
|-------------------4-----2-(2)-------|---2-------------2---2-------------2--|
|-------------------------------------|-0-----------------0------------------|
|-------------------------------------|--------------------------------------|


  E                   N.C.
|-------0-(0)---------0-------0---|----0---------0-------0---------0-----|
|---0---------0---------0-------0-|------0---------0-------0---------0---|
|-----1---------1-1s2-----2s4-----|-/9-----8-(8)-----8-6-----4-(4)-----4-|
|-2-------------------------------|--------------------------------------|
|---------------------------------|--------------------------------------|
|---------------------------------|--------------------------------------|


        E     N.C.        E     N.C.
|---0---0-(0)-0-------0---0-(0)-0-----|
|-----0-0-(0)---0-------0-0-(0)---0---|
|-2-----1-(1)-----1-------1-(1)-----1-|
|-------------------4-----2-(2)-------|
|-------------------------------------|
|-------------------------------------|


  Asus2                                 E           N.C.
|-------0-(0)-------------0-(0)-------|-------0-(0)---------0-------0---|
|-------------0-----------------0-----|---0---------0---------0-------0-|
|-----2---------2-------2---------2---|-----1---------1-1s2-----2s4-----|
|---2-------------2---2-------------2-|-2-------------------------------|
|-0-----------------0-----------------|---------------------------------|
|-------------------------------------|---------------------------------|


 Pre-Chorus
  C#m7        A             E Esus4 E     EsusE
|-4--(4)-4----5--(5)-5----|-0-0-----0-(0)-0---0-----|
|-5--(5)-5--x-5--(5)-5--x-|-0-0-x-x-0-(0)-0-x-0-x-x-|
|-4--(4)-4--x-6--(6)-6--x-|-1-2-x-x-1-(1)-2-x-1-x-x-|
|-6--(6)-6--x-7--(7)-7--x-|-2-2-x-x-2-(2)-2-x-2-x-x-|
|-4--(4)-4----7--(7)------|-2-2-----2-(2)-2---------|
|-------------5--(5)------|-0-0-----0-(0)-0---------|


  C#m7        A           B
|-4--(4)-4----5--5-5----|-------7---------------7---------|
|-5--(5)-5--x-5--5-5--x-|---------7---------------7-------|
|-4--(4)-4--x-6--6-6--x-|-----------8---------------8-----|
|-6--(6)-6--x-7--7-7--x-|-----9-------9-------9-------9---|
|-4--(4)-4----7--7------|---9-----------9---9-----------9-|
|-------------5--5------|-7---------------7---------------|


 Verse
  N.C.
|----0---------0-------0---------0-----|
|------0---------0-------0---------0---|
|-/9-----8-(8)-----8-6-----4-(4)-----4-|
|--------------------------------------|
|--------------------------------------|
|--------------------------------------|
|
| Gtr II
|--------------------------------------|
|--0-----------------------------------|
|--4-----------------------------------|
|--------------------------------------|
|--------------------------------------|
|--------------------------------------|


        E     N.C.          E     N.C.
|---0---0-(0)-0---------0---0-(0)-0------|
|-----0-0-(0)---0---------0-0-(0)---0----|
|-2-----1-(1)-----1---------1-(1)-----1--|
|--------------------4------2-(2)--------|
|----------------------------------------|
|----------------------------------------|
|
|----------------------------------------|
|-0-----------------(0)-------------0----|
|-4-----------------(4)-------------4----|
|----------------------------------------|
|----------------------------------------|
|----------------------------------------|


  Asus2
|---------0-(0)---------------0-(0)----------|
|---------------0-------------------0--------|
|-------2---------2---------2---------2------|
|-----2-------------2-----2----------------2-|
|-0--------------------0---------------------|
|--------------------------------------------|
|
|-5---------(5)-------(5)--------------------|
|-5---------(5)-------(5)--------------------|
|-4b6-------(4)-------(4)-------------4pb6r==|
|--------------------------------------------|
|--------------------------------------------|
|--------------------------------------------|


  E               N.C.
|---------0-(0)---------0-------0---|
|-----0---------0---------0-------0-|
|-------1---------1-1s2-----2s4-----|
|--2--------------------------------|
|-----------------------------------|
|-----------------------------------|
|
|-----------------------------------|
|-----------------------------------|
|-(4)-------------------------------|
|-----------------------------------|
|-----------------------------------|
|-----------------------------------|


                                         E        N.C.            E     N.C.
|----0---------0-------0---------0-----|----0---0-(0)-0-------0---0-(0)-0------|
|------0---------0-------0---------0---|------0-0-(0)---0-------0-0-(0)---0----|
|-/9-----8-(8)-----8-6-----4-(4)-----4-|--2-----1-(1)-----1-------1-(1)-----1--|
|--------------------------------------|--------------------4-----2-(2)--------|
|--------------------------------------|---------------------------------------|
|--------------------------------------|---------------------------------------|
|
|--0-----------------------------------|--0------------------------------------|
|--0-----------------------------------|--0------------------------------------|
|--------------------------------------|---------------------------------------|
|--9-----------------------------------|-/9------------------------------------|
|--------------------------------------|---------------------------------------|
|--------------------------------------|---------------------------------------|


  Asus2
|----------0-(0)---------------0-(0)-------------|
|----------------0-------------------0-----------|
|--------2---------2---------2---------2---------|
|------2-------------2-----2------------------2--|
|-0---------------------0------------------------|
|------------------------------------------------|
|
|------------------------------------------------|
|-9b10-------(9)-------(9)-------------9pb10r(9)-|
|------------------------------------------------|
|------------------------------------------------|
|------------------------------------------------|
|------------------------------------------------|


  E           N.C.
|-------0-(0)---------0-------0---|
|---0---------0---------0-------0-|
|-----1---------1-1s2-----2s4-----|
|-2-------------------------------|
|---------------------------------|
|---------------------------------|
|
| ~
|---------------------------------|
|-9-------------------------------|
|---------------------------------|
|---------------------------------|
|---------------------------------|
|---------------------------------|


 Pre-Chorus
  
  C#5    A5     N.C.E5N.C.
  Gtr II
                PM    PM ~~~    PM ~~~   ~~~PM------|
|-----------------|-----------------------------------|
|-----------------|-----------------------------------|
|-6---6--2--(2)---|-----------------------------------|
|-6---6--2--(2)---|-2---------------------------------|
|-4---4--0--(0)---|-2---[4]-(4)---[4]---[4]-----------|
|---------------0-|-0-0---------0-----0-----0-4-5-4-0-|


  C#5     A5     B5              N.C.
                   PM|   PM|
|--------------|-----------------------|
|--------------|-----------------------|
|-6-------2----|-4-----4-----4---------|
|-6---x-x-2----|-4-----4-----4---------|
|-4---x-x-0----|-2-2-2-2-2-2-2---------|
|--------------|---------------2-(2)-4-|


  A5   A      EsusE     Eadd9                      E5      A5
  Gtr IV
|------0----|--------------------------------------------|------------|
|------2----|--------------------------------------------|------------|
|------2----|-4b6-4-(4)-2--2b4==(2)r(2)-1-2b4==(2)r(2)-1-|------------|
|------2----|--------------------------------------------|------------|
|------0----|--------------------------------------------|-2s4-(4)----|
|-----------|--------------------------------------------|------------|
|
| Gtr II
|-----------|--------------------------------------------|------------|
|-----------|--------------------------------------------|------------|
|-2---------|-2---1--------------------------------------|-2----------|
|-2---------|-2---2-----4-(4)--------4----4---------4--2-|-2----------|
|-0---------|-2---2-----2-(2)--------2----2---------2----|-0----------|
|-----------|-0---0-----0-(0)--------0----0--------------|------------|


                                                       
  Esus4 N.C. E5              N.C.                A5       B   N.C.  E5  N.A5
  Gtr IV
|----------------------------------------------|------------------|------------|
|----------------------------------------------|------------------|------------|
|-4b6-4-(4)--2--2b4==(2)r(2)-1--2b4==(2)r(2)-1-|------------------|------------|
|----------------------------------------------|------------------|------------|
|----------------------------------------------|-2s4-(4)----------|------------|
|----------------------------------------------|------------------|------------|
|
|----------------------------------------------|------------------|-0----------|
|----------------------------------------------|------------------|-0----------|
|-2------x-------------------------------------|-2--------4-------|-9-----2----|
|-2------x---2-(2)-----------------------------|-2--------4---x---|-9---x-2----|
|-2------x---2-(2)-----------------------------|-0--------6-----x-|-7---x-0----|
|-0----------0-(0)--------2----(2)----4--------|----------7-------|------------|


                                   Chorus
  A5              B5                C5              D5
  Gtr I
|---------0---------------0-------|----------------------------------|
|-----0-----0---------------0-----|---------1---------------3--------|
|-------2-----2-------4-------4---|-----0-------0-------0-------0----|
|---2-----------2---4---4-------4-|---2---2---2---2---4---4---4---4--|
|-0---------------2---------------|-3---------------5----------------|
|---------------------------------|----------------------------------|
|
| Gtr II
|---------------------------------|----------------------------------|
|---------------------------------|----------------------------------|
|-2---------------4---------------|-5---------------7----------------|
|-2---------------4---------------|-5---------------7----------------|
|-0---------------2---------------|-3---------------5----------------|
|---------------------------------|----------------------------------|


  E5               B      C5              D5                B5
                                                            PM----------|
|-----------0-(0)-------|---------------------------------|-----------------|
|-------0---0-(0)-------|---------1---------------3-------|-----------------|
|---1-----x-1-(1)-------|-----0-------0-------0-------0---|-----------------|
|-2---2---x-2-(2)-------|---2---2---2---2---4---4---4---4-|-----------------|
|-2-------x-2-(2)-------|-3---------------5---------------|-9-9-9-9-9-9-9\--|
|-0---------0-(0)-------|---------------------------------|-7-7-7-7-7-7-7\--|
|
|                                                           PM----------|
|-----------------------|---------------------------------|-----------------|
|-----------------------|---------------------------------|-----------------|
|-----------------------|-5---------------7---------------|-----------------|
|-2-------2-2-(2)-------|-5---------------7---------------|-----------------|
|-2-------2-2-(2)-------|-3---------------5---------------|-9-9-9-9-9-9-9\--|
|-0-------0-0-(0)--19\--|---------------------------------|-7-7-7-7-7-7-7\--|


 Interlude
  G     A      E
  Gtr I
|-3-----5------0-----------<12>-----------|
|-3-3---5--------0----<12>----------------|
|-4---4-6-6/-------13---------------------|
|-5-----7---------------------------------|
|-----------------------------------------|
|-----------------------------------------|
|
| Gtr III
|-3-----5------0----0---------------------|
|-3-3---5-5----0-0--0-----------0---------|
|-4---4-6----6-1----1-------------1-------|
|-5-----7------2----2---------------2-(0)-|
|--------------2----2---------------------|
|-----------------------------------------|


  G          E
|-------------------------------------|
|-------------------9-(9)-------------|
|-12-11-9-----9--11-------------------|
|---------12--------------------------|
|-------------------------------------|
|-------------------------------------|
|
|--3-------3-(3)----0-------0---------|
|--3-------3-(3)----0--0----0-0-------|
|--4-------4-(4)----1-----------1-----|
|--5-------5-(5)----2-----2-------2---|
|--5-------5-(5)----2---------------2-|
|--3-------3-(3)----0-----------------|


  G     A      E                       B5
                                       PM---------------|
|-3-----5-----------<12>-------------|-----------------------|
|---3-----5----0---------------------|-----------------------|
|-----4-----6/---13------------------|-----------------------|
|------------------------------------|-9-9-9-9-9-9-9----9----|
|------------------------------------|-9-9-9-9-9-9-9----9----|
|------------------------------------|-7-7-7-7-7-7-7----7----|
|
|-3-----5------0------0--0-----------|-----------------------|
|-3-3---5-5----0--0---0----0-------0-|-----------------------|
|-4---4-6---6--1------1------1-----0-|-8-8-8-8-8-8-8----8----|
|-5-----7------2------2--------2s6---|-9-9-9-9-9-9-9----9----|
|--------------2------2--------------|-9-9-9-9-9-9-9----9----|
|------------------------------------|-7-7-7-7-7-7-7----7----|
|
| Gtr II
|------------------------------------|-----------------------|
|------------------------------------|-----------------------|
|------------------------------------|------------------9----|
|------------------------------------|-------------9h11---11-|
|------------------------------------|-----------------------|
|------------------------------------|-----------------------|


   Guitar Solo
    A5
    Gtr II
||-----------------12-----12----------|
||o----------------12b14--12b14r12-10-|
||--9-11b13--(11)---------------------|
||------------------------------------|
||o-----------------------------------|
||------------------------------------|
|
|   Gtrs I, III
||------------------------------------|
||o-----------------------------------|
||--2---------------------------------|
||--2---------------------------------|
||o-0---------------------------------|
||------------------------------------|


  E5
   ~~                       ~
|-------------------------------------------||
|-12-----10-(10)-10h12p==10-9--------------o||
|-------------------------------------9-----||
|--------------------------------9h11---11--||
|------------------------------------------o||
|-------------------------------------------||
|
|-------------------------------------------||
|------------------------------------------o||
|--9-9-9--9-------9----9----9-9--9----------||
|--9-9-9--9-------9----9----9-9--9----------||
|--7-7-7--7-------7----7----7-7--7---------o||
|-------------------------------------------||


  A5               B
  ~                 ~~
|------------------------------|
|------------------------------|
|-9---11b13r(11)-9-11---9-(11)-|
|------------------------------|
|------------------------------|
|------------------------------|
|
|------------------------------|
|------------------------------|
|-2-----------------4----------|
|-2-----------------4----------|
|-0-----------------2----------|
|------------------------------|


  C#m          B            A5
                                   ~~
|-----------------------------------------------------|
|--19b21r==19---19b21r==19--17h19p17-(17)-19b21r19p17-|
|-(19)b21r(19)-(19)b21r(19)---------------------------|
|-----------------------------------------------------|
|-----------------------------------------------------|
|-----------------------------------------------------|
|
|-----------------------------------------------------|
|-----------------------------------------------------|
|---6------------4-----------2------------------------|
|---6------------4-----------2------------------------|
|---4------------2-----------0------------------------|
|-----------------------------------------------------|


                                      
  B
   ~~
|------------------/16-17-18-19-19b21--------------------|
|-19-------(19)\----------------------19b21r(19)-17------|
|-----------------------------------------------------18-|
|--------------------------------------------------------|
|--------------------------------------------------------|
|--------------------------------------------------------|
|
|    PM|     PM--|         PM|                PM----|
|--------------------------------------------------------|
|--------------------------------------------------------|
|--8-----8-----------8-----------8-----------------------|
|--9-----9-----------9-----------9-----------------------|
|--9-----9-----------9-----------9-----------------------|
|--7-7-7-7---7---7---7-----7--7--7------------7-----7----|


  
  E5   A5              Asus2           Bsus4
             2/4      4/4
  Gtr II               Gtr I
|-0---------|--------|---------0---------------0-------|
|-0---------|--------|-----0-----0---------------0-----|
|-9----2----|-(2)----|-------2-----2-------4-------4---|
|-9----2----|-(2)----|---2-----------2---4---4-------4-|
|-7----0----|-(0)----|-0---------------2---------------|
|-----------|--------|---------------------------------|


 Chorus
  C               Dadd4             E
  Gtr I
|---------------------------------|-----------0-(0)-------|
|---------1---------------3-------|-------0---0-(0)-------|
|-----0-------0-------0-------0---|---1-----x-1-(1)-------|
|---2---2---2---2---4---4---4---4-|-2---2---x-2-(2)-------|
|-3---------------5---------------|-2-------x-2-(2)-------|
|---------------------------------|-0---------0-(0)-------|
|
| Gtr II
|---------------------------------|-----------------------|
|---------------------------------|-----------------------|
|-5---------------7---------------|-----------------------|
|-5---------------7---------------|-2-------2-2-(2)-------|
|-3---------------5---------------|-2-------2-2-(2)-------|
|---------------------------------|-0-------0-0-(0)--19\--|


  C               Dadd4             E
|---------------------------------|-----------0-(0)-------|
|---------1---------------3-------|-------0---0-(0)-------|
|-----0-------0-------0-------0---|---1-----x-1-(1)-------|
|---2---2---2---2---4---4---4---4-|-2---2---x-2-(2)-------|
|-3---------------5---------------|-2-------x-2-(2)-------|
|---------------------------------|-0---------0-(0)-------|
|
|---------------------------------|-----------------------|
|---------------------------------|-----------------------|
|-5---------------7---------------|-----------------------|
|-5---------------7---------------|-2-------2-2-(2)-------|
|-3---------------5---------------|-2-------2-2-(2)-------|
|---------------------------------|-0-------0-0-(0)--19\--|


  C               Dadd4             E
|---------------------------------|-----------0-(0)-------|
|---------1---------------3-------|-------0---0-(0)-------|
|-----0-------0-------0-------0---|---1-----x-1-(1)-------|
|---2---2---2---2---4---4---4---4-|-2---2---x-2-(2)-------|
|-3---------------5---------------|-2-------x-2-(2)-------|
|---------------------------------|-0---------0-(0)-------|
|
|---------------------------------|-----------------------|
|---------------------------------|-----------------------|
|-5---------------7---------------|-----------------------|
|-5---------------7---------------|-2-------2-2-(2)-------|
|-3---------------5---------------|-2-------2-2-(2)-------|
|---------------------------------|-0-------0-0-(0)--19\--|


                                   Outro
  C               Dadd4             N.C.
|---------------------------------|----0-----0-----0-----0-----0---0--|
|---------1---------------3-------|------0-----0-----0-----0----------|
|-----0-------0-------0-------0---|--9-----8-----6-----4-----2---1----|
|---2---2---2---2---4---4---4---4-|-----------------------------------|
|-3---------------5---------------|-----------------------------------|
|---------------------------------|-----------------------------------|
|
|---------------------------------|----0-----0-----0-----0-----0---0--|
|---------------------------------|------0-----0-----0-----0----------|
|-5---------------7---------------|-/9-----8-----6-----4-----2---1----|
|-5---------------7---------------|-----------------------------------|
|-3---------------5---------------|-----------------------------------|
|---------------------------------|-----------------------------------|


|---0-----0------^0----*|
|-----0-----0----^0----*|
|-2-----1--------^1----*|
|-------------4--^2----*|
|----------------^2----*|
|----------------^0----*|
|
|---0-----0------^0----*|
|-----0-----0----^0----*|
|-2-----1--------^1----*|
|-------------4--^2----*|
|----------------^2----*|
|----------------^0----*|





Comments


Popular Ozzy Osbourne tabs & chords
The Ultimate Sin Bass Tabs
Lay Your World On Me Chords
Shot In The Dark Chords
Budokan Tabs
Dreamer 9 Tabs
Goodbye To Romance 5 Tabs
I Cant Save You Tabs
I Dont Want To Change The World 1 Tabs
Revelation Mother Earth 1 Tabs
Suicide Solution Tribute Tabs


Song lyrics



↑ Back to top | Tablatures and chords are parodies/interpretations of the original songs. You may use it for private study, scholarship, research or language learning purposes only
© 2014 AZChords.com Contact us | Privacy policy | DMCA | Add/correct tabs | Request tabs | Top 50 tabs