>
 >
Little Dolls

Little Dolls Guitar Tabs

Ozzy Osbourne - Little Dolls chords, tabs, tablatures, lyrics

Guitar lessons | Add/correct | Request | Top 50 tabs Artists:  A B C D E F G H I J K L M N O P Q R S T U V W X Y Z 0-9

Little Dolls Guitar Tabs – Ozzy Osbourne

CD, Sheet music, Poster

Do you like Little Dolls? Share with your friends now
Bass TabsTabs
Little Dalls
                                1:                2:
|------------------------------|-----------------|-----------------|
|------------------------------|-----------------|-----------------|
|------4-----4--7------------9-|---------------4-|--4h7-/-/-16-----|
|------4-x-x-4--7------------9-|---------3/4h7---|-----------------|
|------2-x-x-2--5-----x------7-|---4-5-7---------|-----------------|
|-14\-----------------9-10-7---|-7---------------|-----------------|

3:           4:                 5:                    6:
|---/\--/\--|------------------|---------------------|---------------|
|--/--\/--\-|------------------|---7\---7\-----------|---------------|
|-2~~~~~~~~-|----------------2-|---7\---7\----4------|--2/4~~~-------|
|---A.H.----|--------2h3h4h5---|---7\---7\---2-------|--2/4----------|
|-----------|--2h4h5-----------|-x----x-----2--------|-----------14\-|
|-----------|------------------|----------gliss-pick-|---------------|

"The pins and needles prick the..."
|------0----------------0-------------0-----------0-----0-----------0---|
|------0----------------0-------------0-----------0-----0-----------0---|
|-9--------------11------------6-------------9-----------------7--------|
|-9--------------12------------7-------------9-----------------7--------|
|-7--------------12------------7-------------7------------14\--5--------|
|-0----------------------------0-------------0------------------------5^|

Fills:
7:                   8:                        9:
|-------------------|-------------------------|--------------------|
|-------------------|-------------7-9-10/12\--|-10/12\10/12--------|
|-------------------|-------6-7-9-----------\-|--------------------|
|---------------7-9-|-6-7-9-------------------|--7-/9-\7-/9--------|
|---5-4---5h7h9-----|-------------------------|--------------------|
|-7-----x-----------|-------------------------|--------------------|

10:           11:            12:
|------------|-----/\--/\---|--------------|
|---3--------|----/--\/--\--|--------------|
|---2-----2--|---2~~~~~~~~--|--------------|
|-x-0-----2--|------A.H.----|--------------|
|-x-----x-0--|-x------------|----------14\-|
|------------|--------------|--------------|

"Nowhere to run..."
|---------------------------------------------------------
|--------10--9-----------9--7-----------------------------
|--------9---9-----------9--7----------------2------2/4---
|--------11--9-----------9--7----------------2------2/4---
|-0--x-x-0------------x-----0---------0--x-x-0--x-x-------
|---------------------------------------------------------
"your time has come..."
|------------------------------------------------------
|--------10--9-----------9-\7--------------------------
|--------9---9-----------9-\7---------------7------7---
|--------11--9-----------9-\7---------------7------7---
|-0--x-x-0-----------xx-----x-------x-x-x-x----x-x-----
|------------------------------------------------------

Interlude:
|-----------------------------------------------------0-2--0-------
|-2---------------------3-----------------------3------------------
|-2-----2---2h4p2-------2-----2---2h4p2------2--2------------------
|-2-------2----------4--0-------4----------4----0------------------
|-0----------------------------------------------------------------
|-----------------------3-----------------------2------------------

|-3-----------------------
|-3-----------------------
|-2-----------------------
|-0-----------------------
|---------0-1-3-----------
|-1-------------1-3-------

Solo:
|----slow bend---------slow bend-------slow release----------------
|------------------------------------------------------------------
|--4^------------4^-----------------^4-------------^4-4p2--1-----1-
|------------------------------------------------------------2-4---
|------------------------------------------------------------------
|------------------------------------------------------------------
                                   r               r
|--------------------------------12-------------17------14-16-17-18-19^-
|-----5h7-5----10-------10--12^----^12--10--17^----^17------------------
|-2-4-------9^----9^~~~-------------------------------------------------
|-----------------------------------------------------------------------
|-----------------------------------------------------------------------
|-----------------------------------------------------------------------
                        Octaves
|-19~~~~~~~-17-16-----||-------------------------------------------
|---------------------||-7-----10-----9-----7-\-5----7-----10------
|---------------------||-------------------------------------------
|---------------------||-4-----7------6-----4-\-2----4-----7-------
|---------------------||-------------------------------------------
|---------------------||-------------------------------------------

|------------------------------------------------------------------
|-9------7-\-5-/-7-----10----9----7-\-5---7----10---9-\-\-\-\------
|------------------------------------------------------------------
|-6------4-\-2-/-4-----7-----6----4-\-2---4----7-------------------
|------------------------------------------------------------------
|---------------------------------------------------back to 1st riff

Fills:
15:               16:                           17:
|----------------|-10p7----7-------------------|--dive & return----|
|----------------|------10---10-7-10p7---7-----|---\----/----------|
|----------------|---------------------9---9-7-|-4--\--/-----------|
|------------7-9-|-----------------------------|-------------------|
|--------7h9-----|-----------------------------|-------------------|
|-7-9-10---------|-----------------------------|-------------------|

16:
|----------------|
|-10/12-\10-/12--|
|----------------|
|-7-/-9-\-7-/-9--|
|----------------|
|----------------|

Outro Solo:
|-slow b-----------------------------------------------------------
|-12^-----12-12-12-12^---12^----^12^-----^12---10------------10----
|------------------------------------------------------------------
|------------------------------------------------------------------
|------------------------------------------------------------------
|------------------------------------------------------------------

|-9-10-12p10p9--9-10p9----------------------------------------------------
|----------------------10----------------------------------------10h12p10-
|-------------------------9--------------7----7/9~~~~~------9-11----------
|---------------------------x-11~~~~~-------------------------------------
|-------------------------------------------------------------------------
|-------------------------------------------------------------------------

|-12h14p12~~~~~~~~~~----17^---17^---17^-~~~~~~~~~--19^-----------(19)^~~~~~~~
|-----------------------17^---17^---17-~~~~~~~~~~-----22^-22^-22^------22^---
|----------------------------------------------------------------------------
|----------------------------------------------------------------------------
|----------------------------------------------------------------------------
|----------------------------------------------------------------------------

|---dive----19^~~~~~~~~~~----|-------------------14h17p14----14-------
|---\------------------------|----------------------------17----17p14-
|-0|-\-----------------------|--------14h16p14------------------------
|-----\----------------------|--14-16----------16---------------------
|----------------------------|----------------------------------------
|----------/\/\/\/\/\/\/\/\--|----------------------------------------

|------------------------------------------------------------------
|----------------------14h17p14h17-17^~~~~~~~~~~~~~~~~-\-----------
|-16-14h16p14----14h16---------------------------------------------
|-------------16---------------------------------------------------
|------------------------------------------------------------------
|------------------------------------------------------------------

|-------------------------------|-------------------------------------
|-------------------------------|-------------10~~~~--------10-12^-10-
|-/7--6--4----2-4/6~~-7--9-7~~--|--------9/11-----------------x-------
|-------------------------------|-----------------------------x-------
|-------------------------------|-------------------------------------
|-------------------------------|-------------------------------------
      /\  /\
|-12^/--\/--\~~~------------------------14-17p14--14--------------
|---------------------------------14-17---------17--17-14----------
|---------------------------14-16-------------------------16\14----
|------------------------------------------------------------------
|------------------------------------------------------------------
|------------------------------------------------------------------

|------------------------------------------10-9----------------------
|-------------x-17^~~~~~~~~~~~~~~---------------12^----------10-9-10-
|--------------------------------------------------------------------
|--------------------------------------------------------------------
|--------------------------------------------------------------------
|--------------------------------------------------------------------





Comments


Popular Ozzy Osbourne tabs & chords
Crazy-Train Bass Tabs
No More Tears Bass Tabs
Steal Away The Night Bass Tabs
Zombie Stomp Bass Tabs
Flying High Again 3 Tabs
Iron Man Tribute 1 Tabs
Mama Im Coming Home Intro Tabs
No More Tears 4 Tabs
Paranoid Live Tabs
Thunder Underground 1 Tabs


Song lyrics



↑ Back to top | Tablatures and chords are parodies/interpretations of the original songs. You may use it for private study, scholarship, research or language learning purposes only
© 2014 AZChords.com Contact us | Privacy policy | DMCA | Add/correct tabs | Request tabs | Top 50 tabs