>
 >
Little Dolls

Little Dolls Bass Tabs

Ozzy Osbourne - Little Dolls chords, tabs, tablatures, lyrics

Guitar lessons | Add/correct | Request | Top 50 tabs Artists:  A B C D E F G H I J K L M N O P Q R S T U V W X Y Z 0-9

Little Dolls Bass Tabs – Ozzy Osbourne

CD, Sheet music, Poster

Do you like Little Dolls? Share with your friends now
Bass TabsTabs
-------------------------------------------------------------------------------
			     LITTLE DOLLS - Ozzy Osbourne
-------------------------------------------------------------------------------


Tuning: 1/2 step down




      W                   W                   W                   W                 
F#||-------------------|-------------------|-------------------|-------------------|
C#||-------------------|-------------------|-------------------|-------------------|
G#||-------------------|-------------------|-------------------|-------------------|
D#||-------------------|-------------------|-------------------|-------------------|


  Verse 1                                                                      
  Q       Q    Q    Q       Q    Q    E  S S S S E     Q    Q    E  S S Q      
-------------------------|--------------------------|-------------------------|
-------------------------|---------------------7-9--|-----------------9-9\----|
-------------------------|---------------5-7-9------|-------------------------|
--7-------7----7----7----|--7----7----5-------------|--7----7----7------------|


  Q    Q    E  S S S S E     Q    Q    Q    Q       Q    Q    E  S S S S E     Q    Q    Q    Q     
--------------------------|----------------------|--------------------------|----------------------|
---------------------7-9--|----------------------|---------------------7-9--|----------------------|
---------------5-7-9------|----------------------|---------------5-7-9------|----------------------|
--7----7----7-------------|--7----7----7----7----|--7----7----5-------------|--7----7----7----7----|


  E  E  E  E   E  S S S S E     Q    Q    Q    Q       Q    Q    E  S S S S E   
-----------------------------|----------------------|--------------------------|
-----9--7---------------7-9--|----------------------|---------------------7-9--|
-----------9\--0--5-7-9------|----------------------|---------------5-7-9------|
--7--------------------------|--7----7----7----7----|--7----7----5-------------|


  Q    Q    Q    Q       E  E  E  E   S  S S  S S S E     S S E  S S E  S S E   S  S E   
----------------------|--------------------------------|---------9-9----7-7-------------|
----------------------|-----9--7------------------7-9--|--9-9------------------11-11----|
----------------------|-----------9\-------5h-7-9------|------7------7------7--------7--|
--7----7----7----7----|--7------------5h-7-------------|--------------------------------|


  S S E  S S E  S S E   S  S E     S S E  S S E  S S E   S  S E     S S E  S S E  S S E   E     E   
---------9-9----7-7-------------|---------9-9----7-7-------------|---------9-9----7-7--------------|
--9-9------------------11-11----|--9-9------------------11-11----|--9-9------------------11--9g11--|
------7------7------7--------7--|------7------7------7--------7--|------7------7------7------------|
--------------------------------|--------------------------------|---------------------------------|


  Q    Q    Q    Q       Q    Q    E  S S S S E     Q    Q    Q    Q       Q    Q    E  S S S S E   
----------------------|--------------------------|----------------------|--------------------------|
----------------------|---------------------7-9--|----------------------|---------------------7-9--|
----------------------|---------------5-7-9------|----------------------|---------------5-7-9------|
--7----7----7----7----|--7----7----5-------------|--7----7----7----7----|--7----7----5-------------|


  Q    Q    Q    Q       Q    Q    S  S S  S S S E     Q    Q    Q    Q     
----------------------|-----------------------------|----------------------|
----------------------|------------------------7-9--|----------------------|
----------------------|-----------------5h-7-9------|----------------------|
--7----7----7----7----|--7----7----5h-7-------------|--7----7----7----7----|


  E  E  E  E   E  S S S S E     Q    Q    Q    Q       Q    Q    S  S S  S S S E   
-----------------------------|----------------------|-----------------------------|
-----9--7---------------7-9--|----------------------|------------------------7-9--|
-----------9\-----5-7-9------|----------------------|-----------------5h-7-9------|
--7------------5-------------|--7----7----7----7----|--7----7----5h-7-------------|


  Q    Q    Q    Q       Q    Q    S  S S  S S S E     S S E  S S E  S S E   S  S E   
----------------------|-----------------------------|---------9-9----7-7-------------|
----------------------|------------------------7-9--|--9-9------------------11-11----|
----------------------|-----------------5h-7-9------|------7------7------7--------7--|
--7----7----7----7----|--7----7----5h-7-------------|--------------------------------|


  S S E  S S E  S S E   S  S E     S S E  S S E  S S E   S  S E     S S E  S E.   Q    Q     
---------9-9----7-7-------------|---------9-9----7-7-------------|---------9----------------|
--9-9------------------11-11----|--9-9------------------11-11----|--9-9---------------------|
------7------7------7--------7--|------7------7------7--------7--|------7----7\-------------|
--------------------------------|--------------------------------|----------------2----4----|


  Chorus 1                                                                                          
  Q        Q    E  E  Q       Q    Q    E  E  Q       Q    Q    E  E  Q       Q    Q    E  E  Q     
---------------------------|-----------------------|-----------------------|-----------------------|
---------------------------|-----------------------|-----------------------|-----------------------|
---------------------------|-----------------------|-----------------------|-----------------------|
--5--------5-------4--5----|--5----5-------4--5----|--5----5-------4--5----|--5----5-------4--5----|


  Q    Q    E  E  Q       Q    Q    E  E  Q       Q    Q    E  E  E  E     Q.     E  H         
-----------------------|-----------------------|------------------------|---------------------|
-----------------------|-----------------------|------------------------|---------------------|
-----------------------|-----------------------|---------------------5--|--L------7-----------|
--5----5-------4--5----|--5----5-------4--5----|--5----5-------4--5-----|------------0--------|


  Verse 2                                                                   
  Q       Q    Q    Q       Q    Q    E  S S S S E     Q    Q    Q    Q     
-------------------------|--------------------------|----------------------|
-------------------------|---------------------7-9--|----------------------|
-------------------------|---------------5-7-9------|----------------------|
--7-------7----7----7----|--7----7----5-------------|--7----7----7----7----|


  Q    Q     S  S S  S S S E     Q    Q    Q    Q       Q    Q    E  S S S S E   
------------------------------|----------------------|--------------------------|
-------9\----------------7-9--|----------------------|---------------------7-9--|
------------------5h-7-9------|----------------------|---------------5-7-9------|
--7----------5h-7-------------|--7----7----7----7----|--7----7----5-------------|


  Q    Q    Q    Q       E  E  E  E   S  S S  S S S E     Q    Q    Q    Q      
----------------------|--------------------------------|-----------------------|
-------9---------9----|-----9--7------------------7-9--|-----------------9\----|
----------------------|-----------9\-------5h-7-9------|-----------------------|
--7---------7---------|--7------------5h-7-------------|--7----7----7----------|


  Q    Q    E  S S S S E     Q    Q    Q    Q       E  E  E  E  E  S S S S E   
--------------------------|----------------------|----------------------------|
---------------------7-9--|----------------------|-----------------------7-9--|
---------------5-7-9------|----------------------|-----------------5-7-9------|
--7----7----5-------------|--7----7----7----7----|--7--7--7--7--5-------------|


  Bridge                                                                                       
  Q      E   E  Q.     E     Q    E  E  H           W                   Q.     E  E  E  E  E   
--------------------------|----------------------|-------------------|------------------------|
--7------L\---------------|--5----L--------------|-------------------|--3---------------------|
--------------------------|----------------------|-------------------|---------0--1--3--------|
-------------5--L------5--|----------3--L--------|--2----------------|------------------1--3--|


  Q    E  E   E  E  Q       Q    E  E   E  E  Q       Q    E  E  E  E  Q     
-------------------------|-------------------------|-------------------7----|
--------------------7----|--5-----------------7----|----------------7-------|
-----------------7-------|-----------------7-------|--9-------5--9----------|
--5-------5S--9----------|----------5S--9----------|------------------------|


  Q.     E  E  E  E  E     Q    E  E   E  E  Q       Q    E  E   E  E  Q     
------------------------|-------------------------|-------------------------|
------------------------|--------------------7----|--5-----------------7----|
--8------0--1--3--------|-----------------7-------|-----------------7-------|
------------------1--3--|--5-------5S--9----------|----------5S--9----------|


  Q    E   E  E  E  Q       Q    E  E  E  E  E  E     Q    E  E   E  E  Q     
--------------------7----|-------------------------|-------------------------|
-----------------7-------|-------------------------|--------------------7----|
--9----9------9----------|--8----8--0--1--3--------|-----------------7-------|
----------10-------------|-------------------1--3--|--5-------5S--9----------|


  Q    E  E   E  E  Q       Q    E   E  E   E   Q       Q    E  E  E  E  E  E   
-------------------------|---------------------------|-------------------------|
--5-----------------7----|---------------------12----|-------------------------|
-----------------7-------|--9----9------9--12--------|--8----8--0--1--3--------|
----------5S--9----------|----------10---------------|-------------------1--3--|


  Q    E  E   E  E  Q       Q    E  E   E  E  Q       Q    E   E  E   E   Q     
-------------------------|-------------------------|---------------------------|
--------------------7----|--5-----------------7----|---------------------12----|
-----------------7-------|-----------------7-------|--9----9------9--12--------|
--5-------5S--9----------|----------5S--9----------|----------10---------------|


                             Chorus 2                                          
  E  E  E  E  E  E  E  E     Q        Q    E  E  Q       Q    Q    E  E  Q     
--------------------------|---------------------------|-----------------------|
-----3--3--3--------------|---------------------------|-----------------------|
--------------------------|---------------------------|-----------------------|
--1-----------3--3--3--3--|--5--------5-------4--5----|--5----5-------4--5----|


  Q    Q    E  E  Q       Q    Q    E  E  Q       Q    Q    E  E  Q       Q    Q    E  E  Q     
-----------------------|-----------------------|-----------------------|-----------------------|
-----------------------|-----------------------|-----------------------|-----------------------|
-----------------------|-----------------------|-----------------------|-----------------------|
--5----5-------4--5----|--5----5-------4--5----|--5----5-------4--5----|--5----5-------4--5----|


                                                    Guitar Solo                        
  Q    Q    E  E  E  E     Q.     E  E  E  E  E     Q           E.  S S S S S S S S S  
------------------------|------------------------|------------------------------------|
------------------------|------------------------|--------------------4-4-2-2-----2-4-|
---------------------5--|--L------5--------------|----------------------------4-4-----|
--5----5-------4--5-----|------------0--0--0--1--|--2-----------2---x-----------------|


  Q    E.  S S S S S S S S S    Q    E.  S S S S S S S S S    Q    Q    E  E  S E.   
-----------------------------|-----------------------------|------------------------|
-------------4-4-2-2-----2-4-|-------------2-2-2-2-2-2-2-4-|------------------------|
---------------------4-4-----|-----------------------------|------------------------|
--2----2---x-----------------|--2----2---x-----------------|--2----2----0--0--x-1---|


  Q    E.  S S S S S S S S S    Q    E.  S S S S S S S S S    Q    E  E  E  E  E  E   
-----------------------------|-----------------------------|-------------------------|
-------------4-4-2-2-----2-4-|-------------4-4-2-2-----2-4-|-------------------------|
---------------------4-4-----|---------------------4-4-----|--5----5--------------5--|
--2----2---x-----------------|--2----2---x-----------------|----------2--4--5--5-----|


  Q    Q    Q    Q        S S E  S S E  S S E   S  S E     S S E  S S E  S S E   S  S E   
-----------------------|---------9-9----7-7-------------|---------9-9----7-7-------------|
-----------------------|--9-9------------------11-11----|--9-9------------------11-11----|
--7--------------------|------7------7------7--------7--|------7------7------7--------7--|
-------0----0----7/----|--------------------------------|--------------------------------|


  S S E  S S E  S S E   S  S E     S S E  S S E  S S E   S  S E     S S E  S S E  S S E   S  S E   
---------9-9----7-7-------------|---------9-9----7-7-------------|---------9-9----7-7-------------|
--9-9------------------11-11----|--9-9------------------11-11----|--9-9------------------11-11----|
------7------7------7--------7--|------7------7------7--------7--|------7------7------7--------7--|
--------------------------------|--------------------------------|--------------------------------|


  S S E  S S E  S S E   S  S E     S S E  S S E  S S E   S  S E     S S E  S S E  S S E   S  S S S  
---------9-9----7-7-------------|---------9-9----7-7-------------|---------9-9----7-7----------9-9-|
--9-9------------------11-11----|--9-9------------------11-11----|--9-9------------------11-11-----|
------7------7------7--------7--|------7------7------7--------7--|------7------7------7------------|
--------------------------------|--------------------------------|---------------------------------|


                                            Verse 3                                             
  Q    Q    H           W                   Q       Q    Q    Q       Q    Q     E  S S S S E   
--9------------------|-------------------|-------------------------|---------------------------|
---------------------|-------------------|-------------------------|-------9\-------------7-9--|
---------------------|-------------------|-------------------------|----------------5-7-9------|
---------------------|-------------------|--7-------7----7----7----|--7----------5-------------|


  Q    Q    Q    Q        Q    Q    E  S S S S E     Q    Q    Q    Q     
-----------------------|--------------------------|----------------------|
-----------------9\----|---------------------7-9--|----------------------|
-----------------------|---------------5-7-9------|----------------------|
--7----7----7----------|--7----7----5-------------|--7----7----7----7----|


  Q    Q    E  S S S S E     Q    Q    Q    Q       E  E  E  E   S S S S S S E   
--------------------------|----------------------|------------------------------|
---------------------7-9--|----------------------|-----9--7----------------7-9--|
---------------5-7-9------|----------------------|-----------9\------5-7-9------|
--7----7----7-------------|--7----7----7----7----|--7------------5-7------------|


  Q    Q    Q    Q       Q    Q    E  S S S S E     Q    Q    Q    Q     
----------------------|--------------------------|----------------------|
----------------------|---------------------7-9--|----------------------|
----------------------|---------------5-7-9------|----------------------|
--7----7----7----7----|--7----7----5-------------|--7----7----7----7----|


                                 Chorus 3                                          
  E  E  E  E   S S S S S S E     Q        Q    E  E  Q       Q    Q    E  E  Q     
------------------------------|---------------------------|-----------------------|
-----9--7----------------7-9--|---------------------------|-----------------------|
-----------9\------5-7-9------|---------------------------|-----------------------|
--7------------5-7------------|--5--------5-------4--5----|--5----5-------4--5----|


  Q    Q    E  E  Q       Q    Q    E  E  Q       Q    Q    E  E  Q       Q    Q    E  E  Q     
-----------------------|-----------------------|-----------------------|-----------------------|
-----------------------|-----------------------|-----------------------|-----------------------|
-----------------------|-----------------------|-----------------------|-----------------------|
--5----5-------4--5----|--5----5-------4--5----|--5----5-------4--5----|--5----5-------4--5----|


                                                  Outro                                            
  Q    Q    E  E  Q       Q    Q    E  E  Q       Q     Q    E  E  S  E.     Q    Q    E  E  Q     
-----------------------|-----------------------|--------------------------|-----------------------|
-----------------------|-----------------------|----------------5--Lh-7---|-----------------------|
-----------------------|-----------------------|--------------------------|-----------------------|
--5----5-------4--5----|--5----5-------4--5----|--5-----5-----------------|--5----5-------3--5----|


  Q    Q    E  E   Q       E  E  Q    E  S  S E  E     Q    Q    E  E  E  S  S  
------------------------|---------------------------|--------------------------|
---------------5s--7----|---------------------------|--------------------------|
------------------------|---------------------------|------------3-------------|
--5----5----L-----------|--5--0--5----5--3h-5-3--3--|--5----5-------5--3--3h-5-|


  Q    Q    S S S S E  S S    Q    Q    E  E  Q       Q    E  E  E  S S Q     
---------------------------|-----------------------|-------------------------|
------------5-5-5-5-5--7-7-|-----------------------|-------7--5--L----5------|
---------------------------|-----------------------|----------------7---7----|
--5----5-------------------|--5----5-------3--5----|--5----------------------|


  Q    Q    S  S S  S Q       E  E  Q    S  S S  S E  E     Q    E  E  S S E  E  E   
------------7p-5-----------|-----------------------------|--------------------------|
-----------------7p-5-7----|-----------------------------|--------------------------|
---------------------------|-------------5p-3------------|-------------3-3----------|
--5----5-------------------|--5--0--5---------5p-3-0--3--|--5----5--5------5--0--3--|


  Q    E    E   E   E   S  E.     E  E  Q    S S E  E  E     E  E  E  S S E  E  S E.   
-------------------------------|--------------------------|---------------------------|
-------------------------------|-------------7-5-------7--|---------------5--5--5-7---|
-----------10---L--10--10-12---|-----------------7--7-----|---------------------------|
--5----5/----------------------|--5--0--5-----------------|--5--0--5--5-5-------------|


  Q    Q    S S S S S S S S    S S S S S S S S E  E  Q       E   E  Q    E  E  Q     
------------7-5-----7-5-----|--7-5------------------------|-------------------------|
----------------7-5-----7-5-|------7-5-7-5----------------|-------------------------|
----------------------------|--------------7-5-3--5--3----|-------------------------|
--5----5--------------------|-----------------------------|--3h--5--5-------3--5----|


  Q    Q    E  E  Q       Q    Q    E  E  E  S  S    Q    E  E  S S S S Q     
-----------------------|------------5--5--5-------|--------------------------|
---------------5--7----|---------------------7p-5-|--7-----------------------|
-----------------------|--------------------------|-------------3-3-3-3-3----|
--5----5----7----------|--5----5------------------|-------5--5---------------|


  Q    Q    E  E  E  E     Q    Q    E  E  S S S  S    E  E  E  E  E  E  E  E   
------------------------|------------5--5--5-5------|--------------------------|
------------5--5--5--7--|----------------------5h-7-|--7--7--------------------|
------------------------|---------------------------|--------------------------|
--5----5----------------|--5----5-------------------|--------5--3--3--4--5--0--|


  E  E  S S S S S S E  S S E     E  E  E  E   S   S  S  S  E   E     E  E  Q    E  E  Q     
------------------------------|-----------------------------------|------------------------|
------------------------------|-----------------------------------|------------------------|
--------5-3-----5-3----5-3----|--------------10h-12-12-12-12--12--|------------------------|
--5--5------5-3-----5------5--|--5--5--5--5-----------------------|--5--0--5----L--3--5----|


  E  E  Q    E  E  Q       S E.  E  S S E  E  Q       E  E  Q    E   E   Q     
------------------------|--------------------------|--------------------------|
-------------5--5--5----|--5-7---------------------|--------------------------|
------------------------|--------------------------|----------------10--12----|
--5--5--5---------------|--------5--5-5-5--3--5----|--5--0--5----L------------|


  E  E  E  E  E  S S Q       E  E  Q    E   E   Q      
--------------------------|--------------------------||
-----------5--L--5-7------|--------------------------||
---------------------7----|----------------10--12----||
--5--3--3-----------------|--5--0--5----L------------||




Duration Legend
---------------
W - whole
H - half
Q - quarter
E - 8th
S - 16th
T - 32nd
X - 64th
. - note dotted
|-n-|  - n-tuplets


Tablature Legend
----------------
L - tied note
x - dead note
g - grace note
(n) - ghost note
> - accentuded note
NH - natural harmonic
AH - artificial harmonic
TH - tapped harmonic
SH - semi harmonic
PH - pitch harmonic
h - hammer on
p - pull off
b - bend
br - bendRelease
pb - preBend
pbr - preBendRelease
brb - bendReleaseBend
\n/ - tremolo bar dip
\n - tremolo bar dive
-/n - tremolo bar Release up
/n\ - tremolo bar inverted dip
/n - tremolo bar return
-\n - tremolo bar Release down
S - shift slide
s - legato slide
/ -  slide into from below or out of upwards
\ -  slide into from above or out of downwards
~ - vibrato
W - wide vibrato
tr - trill
TP - tremolo picking
T - tapping
S - slap
P - pop
< - fade in
^ - brush up
v - brush down





Comments


Popular Ozzy Osbourne tabs & chords
Diary Of A Madman Bass Tabs
Dreamer Chords
Mr Crowley Chords
Sato Chords
Crazy TrainIntro Tabs
Dreamer Tabs
Dreamer 6 Tabs
Nativity In Black 1 Tabs
Shot In The Dark 3 Tabs
Lay Your World On Me Ukulele


Song lyrics



↑ Back to top | Tablatures and chords are parodies/interpretations of the original songs. You may use it for private study, scholarship, research or language learning purposes only
© 2014 AZChords.com Contact us | Privacy policy | DMCA | Add/correct tabs | Request tabs | Top 50 tabs