» » »

Let It Die Tabs (ver.1)

Artists:  A B C D E F G H I J K L M N O P Q R S T U V W X Y Z # 

Let It Die Tabs (ver.1)

Ozzy Osbourne
Rating:
0/5 (0 votes)

Hard to play? Try these video lessons and learn fast.
                let ti die by ozzy osbourne
this is my first tab so show some respect
intro two times
E|------------------------------------------------------------|
B|------------------------------------------------------------|
G|------------------------------------------------------------|
D|------------------------------666---------------------------|
A|------------------------------666---------------------------|
D|-5530-5-5530-6---5530--5-5530-666---------------------------|
solo
E|------------------------------------------------------------|
B|------------------------------------------------------------|
G|-------------------------------15-16-18b-18b-18b-18b--15-17-|
D|---------------------13-15-17-------------------------------|
A|-----------13-15-17-----------------------------------------|
D|--13-15-17--------------------------------------------------|

E|-----------15s13---------13s11---------11s10---------10s8--------8s7--------------------|
B|----------------------------------------------------------------------------------------|
G|--13-12-13-------12-10-12------10 8 10--------8-7-8--------5-7-5------5-4-5-------------|
D|----------------------------------------------------------------------------------------|
A|----------------------------------------------------------------------------------------|
D|----------------------------------------------------------------------------------------|

E|------------------------------------------------------------|
B|------------------------------------------------------------|
G|-10b-10b-13b-14b-16b----------------------------------------|
D|--8b-11b-11b-12b-14b----------------------------------------|
A|------------------------------------------------------------|
D|------------------------------------------------------------|
pre
verse play till bass and after bass
E|-------|
B|-------|
G|-------|
D|-------|
A|-------|
D|0-0s10-
chorus
E|------------------------------------------------------------|
B|------------------------------------------------------------|
G|------------------------------------------------------------|
D|-5-7-7-5--5-7-7-5---5-7-7--5-7--5-7----0-3-3-0-0-3-3-0-0----|
A|-3-5-5-3--3-5-5-3---3-5-5--3-5--3-5----0-3-3-0-0-3-3-0-0----|
D|---------------------------------------0-3-3-0-0-3-3-0-0----|

E|------------------------------------------------------------|
B|------------------------------------------------------------|
G|------------------------------------------------------------|
D|5-7-7-5--5-7-7-5--7-9-10-10-7-10-10--7----------------------|
A|3-5-5-3--3-5-5-3--5-7-8--8--9--8--8--9----------------------|
D|------------------------------------------------------------|

E|------------------------------------------------------------|
B|------------------------------------------------------------|
G|---------------------x-x-x-x--------------------------------|
D|5-7-7-5--5-7-7-5-3-3-x-x-x-x---3-3--------------------------|
A|3-5-5-3--3-5-5-3-1-1-x-x-x-x---1-1--------------------------|
D|------------------------------------------------------------|
pre verse
chorus
solo
E|------------------------------------------------------------|
B|--------------------------------------13--------------------|
G|3-3-5-7-9b--9b-7-7-5-5-3-5-3--2----12b---12b-10-12----10----|
D|---------------------------------------------------12-------|
A|------------------------------------------------------------|
D|------------------------------------------------------------|

E|------------------------------------------------------------|
B|----------------------------------------13------------------|
G|3-3-5-7-9b--9b-9s7-5-7--5s3--2------14-----12b-10-12----10--|
D|-----------------------------------------------------12-----|
A|------------------------------------------------------------|
D|------------------------------------------------------------|

E|------------------------------------------------------------|
B|-------------------------11---11-15-17b---------------------|
G|----------------10-12-14------------------------------------|
D|--------10-12-14--------------------------------------------|
A|--12-13-----------------------------------------------------|
D|------------------------------------------------------------|
this riff  6x                                           this part 2nd time
E|------------------------------------------------------------|
B|------------------------------------------------------------|
G|------------------------------------------------------------|
D|-----------------------------------8-5-8-----------5-8-5----|
A|0----------------------------------6-3-6-----------3-6-3----|
D|0--000-00-0000-00--000-00-000-00----------------------------|
this riff
E|------------------------------------------------------------|
B|------------------------------------------------------------|
G|------------------------------------------------------------|
D|------------------------------------------------------------|
A|-8b------------10b---------8b-----------10b-10--------------|
D|----0-0-0-0--------0-0-0-0----0-0-0-0-----------------------|

E|------------------------------------------------------------|
B|------------------------------------------------------------|
G|------------------------------------------------------------|
D|------------------------------------------------------------|
A|8b------------10b----------8b----------------10b 10b 10b----|
D|----0-0-0-0--------0-0-0-0----0-0-0-0-----------------------|
solo 2
E|------------------------------------------------------------|
B|--12b-12b------13b-13b--15b-15b-----------20b---------------|
G|--14--14-------15--15---17--17------------------------------|
D|------------------------------------------------------------|
A|------------------------------------------------------------|
D|------------------------------------------------------------|

E|----------------------------------------------------------17-|
B|19---20-19-20-19s17---19-17-19-17s15------15----17---17b-----|
G|-------------------------------------------------------------|
D|-------------------------------------------------------------|
A|-------------------------------------------------------------|
D|-------------------------------------------------------------|

E|17---18-15-18---17--15-18-15--17-----18-15-18----17-17-18b-18---15b--|
B|---------------------------------------------------------------------|
G|---------------------------------------------------------------------|
D|---------------------------------------------------------------------|
A|---------------------------------------------------------------------|
D|---------------------------------------------------------------------|
chorus
outro
E|------------------------------------------------------------|
B|------------------------------------------------------------|
G|------------------------------------------------------------|
D|0-----------------------------------------------------------|
A|0-----------------------------------------------------------|
D|0-----------------------------------------------------------|
            
Hard to play? Try these video lessons and learn fast. | Correct




comments powered by Disqus
↑ Back to top | Tablatures and chords are parodies/interpretations of the original songs. You may use it for private study, scholarship, research or language learning purposes only