» » »

Ozzy Osbourne, Killer Of Giants Tabs (ver.2)

Artists:  A B C D E F G H I J K L M N O P Q R S T U V W X Y Z # 

Killer Of Giants Tabs (ver.2)

Ozzy Osbourne Tabs
Rating:
0/5 (0 votes)
Killer Of Giants lessons Tabs too difficult? Try these video lessons and learn fast
                Here's the Intro, Refrain and solo.The solo is 95% rite.
I am working on tabbing the verses
so keep checking back.

Updated the solo on MAY 16,2012

TUNE: HALF-STEP DOWN

INTRO:

eb|-----0-------------0----------0----------------0----|
Bb|------0----------0--------------0------------0------|
Gb|---9---9-------5------------9-----9--------5--------|
Db|--9-----9----5------------9---------9----5----------|
Ab|-7---------3------------7--------------3------------|
Eb|0---------------------0-----------------------------|

eb|--------0----------------0-----------------0----------------0-------| \ 
Bb|----------0------------0---0-----------------0----------------0-----|  |
Gb|------9-----9--------5-------5----------9------9----------7-----7---|  |
Db|----9---------9----5-----------5------9----------9------8---------8-|  |
Ab|--7--------------3------------------7-----------------8-------------|  |
Eb|0---------------------------------0-----------------6---------------|  |2x
                                                                          |
eb|--------0----------------0----------------0----------------0--------|  |
Bb|----------0------------0---0----------------0----------------0------|  |
Gb|------9-----9--------5-------5----------4-----4----------2-----2----|  |
Db|----9---------9----5-----------5------5---------5------3---------3--|  |
Ab|--7--------------3------------------5----------------3--------------|  |
Eb|0---------------------------------3----------------1----------------|  /

eb|-----------3---------------3---------------3-------6-----5-----3----| \
Bb|----------3--3-----------3---3-----------3---3-------3-----3-----3--| |
Gb|--------5------5-------5-------5-------3-------3-------3-----3------| |2x
Db|----3h5----------5---5-----------5---3-----------3------------------| |
Ab|--3----------------3---------------3--------------------------------| |
Eb|--------------------------------------------------------------------| /

eb|----------5---------------5---------------5-------8-----7-----5-----|
Bb|--------5---5-----------5---5-----------5---5-------5-----5-----5---|
Gb|------7-------7-------7-------7-------5-------5-------5-----5-------|
Db|--5h7-----------7---7-----------7---5-----------5-------------------|
Ab|5-----------------5---------------5---------------------------------|
Eb|--------------------------------------------------------------------|

                                                
eb|-----------5---------------5---------------5-------8----------------| 
Bb|---------5---5-----------5---5-----------5---5-----5----------------|
Gb|-------7-------7-------7-------7-------5-------5---5----------------|
Db|---5h7-----------7---7-----------7---5-------------5----------------|
Ab|-5-----------------5---------------5--------------------------------|
Eb|--------------------------------------------------------------------|

eb|0-------0-------0-------0------0------0-------0-----------|
Bb|--0-------0-------0-------0------0------0-------0---------|
Gb|----6-------6-------6-------5------5------5-------5-------|
Db|------6-------6-------6-------5------5------5-------5-----|
Ab|----------------------------------------------------------|
Eb|----------------------------------------------------------|

eb|0------0------0------0------0------0------0------0-----------|
Bb|--0------0------0------0------0------0------0------0---------|
Gb|----6------6------0------0------5------5------5------5-------|
Db|------6------6------6------6------5------5------5------5-----|
Ab|-------------------------------------------------------------|
Eb|-------------------------------------------------------------|

eb|0---------------0---------------0-------------------0-------|
Bb|--0-----------0---0-----------0---0---------------0---0-----|
Gb|----2-------2-------2-------2-------2-----------2-------2---|
Db|------2---2-----------2---2-----------2-------2-------------|
Ab|--------0---------------0---------------2-2-2---------------|
Eb|------------------------------------------------------------|

Chorus: 
eb|---------------------------------------------|
Bb|---------------------------------------------|
Gb|11-9---7---6--4---4-----------------2--------|
Db|11-9---7---6--4---4-----------------2---7-7--|
Ab|-9-7---5---4--2---2----2---4----5---0---7-7--|
Eb|----------------------------------------5-5--|
   killer of giants      threatens us all
eb|---------------------------------------------|
Bb|---------------------------------------------|
Gb|11--9----7---6--4---4---------------2--------|
Db|11--9----7---6--4---4---------------2---7-7--|
Ab|-9--7----5---4--2---2----2--4---5---0---7-7--|
Eb|----------------------------------------5-5--|
  mountains of maddnes    standing so tall
eb|---------------------3-----------------------|
Bb|-----------------0---0------------------5----|
Gb|11--9----7----2--0---0------------------4----|
Db|11--9----7----2--0---0------------------5----|
Ab|-9--7----5----0------------------------------|
Eb|-----------------3---3-----------------------|
   Mountains of protest   not stopping the war   
eb|----------------------------------------------|
Bb|----2-----2----2----2-----2-----2---2-------2-|
Gb|-------4----4----4----4-----4-----4---4-----4-|
Db|7-------------4---------4-----4---------4---4-|
Ab|7-----------------------------------------2---|
Eb|5---------------------------------------------|
  ohh  the killer of giants  the killer of giants

SOLO:
eb|7----------------------------------------------------|
Bb|7h8p7-------7----------------------------------------|
Gb|-------9-7--7h9p7------------------------------------|
Db|------------------9-7---9-7--------------------------|
Ab|----------------------------7--5-4-5-4---------------|
Eb|---------------------------------------5-7\---2-2-2~-|

eb|--------------------5-7---------------------------|
Bb|------------------7------5--7---------------------|
Gb|----------------------------------7--6--4~--------|
Db|4-4/7-5--5-5/9-7----------------------------------|
Ab|--------------------------------------------------|
Eb|2-2------3-3--------------------------------------|

eb|-----------------------|   eb|--------------------------| 
Bb|-----------------------|   Bb|--------------------------|
Gb|-9h11--7h9--6h7--4-----|2x Gb|7-6-7--9-7-9-11--11h14p11-|
Db|-----------------------|   Db|--------------------------|
Ab|-----------------------|   Ab|--------------------------|
Eb|-----------------------|   Eb|--------------------------|

eb|------------------------------9h10h11--10p9------------14|
Bb|-------10/8---------12\10-------------------12---14h15---|
Gb|---------------------------------------------------------|
Db|---7/9--------9/11--------7/9----------------------------|
Ab|---------------------------------------------------------|
Eb|3----------7---------------------------------------------|

eb|-115-14-------------------17-14-------------------------|
Bb|--------15p14-------------------17p15-------------------|
Gb|--------------------------------------------------------|
Db|-----------------------10----------------------12-------|
Ab|--------------10-12-14----------------12-14-16----------|
Eb|--------------------------------------------------------|
                     
eb|17fb--17---14hbr-hbr-hbr---19fbr--19fhbr-----------|
Bb|---------------------------------------------------|
Gb|---------------------------------------------------|
Db|---------------------------------------------------|
Ab|---------------------------------------------------|
Eb|---------------------------------------------------|

Please Rate and Comment.

************************************

| /   slide up
| \   slide down
| h   hammer-on
| p   pull-off
| ~   vibrato
| +   harmonic
| x   Mute note
| b   Bend
| pb  Pre-bend
| br  Bend release
| pbr Pre-bend release
| brb Bend release bend
| fb  Full-bend
| fhb Full and half bend
| hbr Half-bend release

************************************
            
Submit corrections

comments powered by Disqus
↑ Back to top | Ozzy Osbourne Tabs for Killer Of Giants. Lyrics for acoustic guitar and electric guitar. Tablatures and chords are parodies/interpretations of the original songs. You may use it for private study, scholarship, research or language learning purposes only