» » »

Ozzy Osbourne, Junkie Tabs (ver.2)

Artists:  A B C D E F G H I J K L M N O P Q R S T U V W X Y Z # 

Junkie Tabs (ver.2)

Ozzy Osbourne Tabs
Rating:
0/5 (0 votes)
Junkie lessons Tabs too difficult? Try these video lessons and learn fast
                This is my first tab, but I thank it is pretty accurate
All done on a seven string guitar
Intro
e|-------------------------
b|-------------------------
g|-------------------------
D|-------------------------   X2
A|-------------------------
E|-5fb-5-5fb-5-5-5fb-5-5fb-
B|-------------------------

Verse
e|---------------------------------------
b|---------------------------------------
g|---------------------------------------
D|--------------------------------x-x-x-x  X3
A|5hb-5-5hb-5-5-5hb-5-5hb--7^^^^^-x-x-x-x
E|5hb-5-5hb-5-5-5hb-5-5hb---------x-x-x-x
B|5hb-5-5hb-5-5-5hb-5-5hb---------x-x-x-x

main riff
e|---------------------------------------
b|---------------------------------------
g|---------------------------------------
D|--------------------------------x-x-x-x  play until chorus
A|-------------------------7^^^^^-x-x-x-x
E|-5fb-5-5fb-5-5-5fb-5-5fb--------x-x-x-x
B|--------------------------------x-x-x-x

chorus
e|-----------------------------------
g|-----------------------------------
g|-----------------------------------
D|-----------------------------------
A|-4-------4-------4-------4-------4-
E|-2-------2-------2-------2-------2-
B|-----------------------------------
            
Submit corrections

comments powered by Disqus
↑ Back to top | Ozzy Osbourne Tabs for Junkie. Lyrics for acoustic guitar and electric guitar. Tablatures and chords are parodies/interpretations of the original songs. You may use it for private study, scholarship, research or language learning purposes only