>
 >
Iron Man Live

Iron Man Live Guitar Tabs

Ozzy Osbourne - Iron Man Live chords, tabs, tablatures, lyrics

Guitar lessons | Add/correct | Request | Top 50 tabs Artists:  A B C D E F G H I J K L M N O P Q R S T U V W X Y Z 0-9

Iron Man Live Guitar Tabs – Ozzy Osbourne

CD, Sheet music, Poster

Do you like Iron Man Live? Share with your friends now
Tabs
Diary of a Madman Tour 1-15-82
vocals: ozzy osbourne
lead/rythem guitar: randy rhoads
bass: rudy sarzo
drums: tommi aldridge

legend:
h: hammer-on
p: pull off
\: slide down
*: pinch harmonic
s: slide
b: bend
m: palm mute

E-----------------------------------------------|
B-----------------------------------------------|
G-----4-----------------------------------------|
D-----4--7-7s9-9--12s11m12m11-12s11--7-7s9------|
A-----2--5-5s7-7--10s9-m10m9--10s9---5-5s7------|
E-15\-2-----------------------------------0-12\-|

E------------------------------------------|
B------------------------------------------|
G--------------------------------------7s6-|
D-4-7-7s9-9-12s11m12m11-12s11--7-7s9---7s6-|
A-2-5-5s7-7-10s9-m10m9--10s9---5-5s7-0-5s4-|
E-2-------7----------------------------5s4-|

E------------------------------------------------|
B------------------------------------------------|
G------------------------------------------------|
D-4\-7-7s9-9-12s11m12m11-12s11--7-0h2h3p2h3p2p0--|
A-2\---5s7-7-10s9-m10m9--10s9---5--------------0-|
E-2\-------7-------------------------------------|

E-------------------------------------------|
B-------------------------------------------|
G--4----------------------------------------|
D--4--7-7s9-9--12s11m12m11-12s11--7-7s9-9s--|
A--2--5-5s7-7--10s9-m10m9--10s9---5-5s7-7s--|
E--2------------------------------------0---|

E------------------------------------------|
B------------------------------------------|
G--------------------------------------7s6-|
D-4-7-7s9-9-12s11m12m11-12s11--7-7s9---7s6-|
A-2-5-5s7-7-10s9-m10m9--10s9---5-5s7-0-5s4-|
E-2-5-5-7-7----------------------------5s4-|

E----------------------------------------|
B----------------------------------------|
G--------------------------------------7-|
D-4-7-7s9-9-12s11m12m11-12s11--7-7s9---7-|
A-2-5-5s7-7-10s9-m10m9--10s9---5-5s7-0---|
E-2-------7------------------------------|

E-------------------------------------------|
B-------------------------------------------|
G--4----------------------------------------|
D--4--7-7s9-9--12s11m12m11-12s11--7-7s9-9---|
A--2--5-5s7-7--10s9-m10m9--10s9---5-5s7-7---|
E--2------------------------------------0---|

E--------------------------------------------------------------------------|
B--------------------------------------------------------------------------|
G--------------------------------------------------------------------------|
D-----7-9p7h9p7h9p7h9p7-7-------------------7--------------------9p7h9p7h9-|
A-9-9-5-----------------7-7-7---6-7-7-8-9-9-5-7p5h7p5h7-9p7h9p7h9----------|
E-7-7-------------------5-5-5-0-4-5-5-6-7-7--------------------------------|

E----------------------------------------------------------------|
B---------------------------------/\-----------------------------|
G-------------------------------9//\\7-----9--------pickslide^^^-|
D-7p5h7p5h7---------------------9/--\7-9p7-9--7-----pickslide^^^-|
A----------7-7-7---6-7-7-8-9-9-9----------9---7-7-7--------------|
E----------5-5-5-0-4-5-5-6-7-7-7------------0-5-5-5--------------|

E-------------------------------------------------------------|
B-------------------------------------------------------------|
G--4----------------------------------------------------------|
D--4--7-7s9-9--12s11m12m11-12s11--7-7h9p5h7p5-----------------|
A--2--5-5s7-7--10s9-m10m9--10s9---5----------7h8p7p5h7p5------|
E--2----------------------------------------------------7p5h7\|

the rest is just the origanal sabbath song but there is no solo in this version its 
accurate i think





Comments


Popular Ozzy Osbourne tabs & chords
Crazy Train 3 Bass Tabs
The Ultimate Sin Bass Tabs
Goodbye To Romance 1 Chords
Breaking All The Rules Tabs
Crazy Train 4 Tabs
Desire Tabs
Get Me Through Tabs
Momma Im Comming Home Tabs
Slow Down Tabs
Mama Im Coming Home Ukulele


Song lyrics



↑ Back to top | Tablatures and chords are parodies/interpretations of the original songs. You may use it for private study, scholarship, research or language learning purposes only
© 2014 AZChords.com Contact us | Privacy policy | DMCA | Add/correct tabs | Request tabs | Top 50 tabs