>
 >
Iron Man

Iron Man Guitar Tabs

Ozzy Osbourne - Iron Man chords, tabs, tablatures, lyrics

Guitar lessons | Add/correct | Request | Top 50 tabs Artists:  A B C D E F G H I J K L M N O P Q R S T U V W X Y Z 0-9

Iron Man Guitar Tabs – Ozzy Osbourne

CD, Sheet music, Poster

Do you like Iron Man? Share with your friends now
TabsTabs v2Tabs v3
Artist; Ozzy osbourne
Album tribute



intro/ main riff
----7-7-9-9-12-11-12-11-12-11-7-7-9-9-----7-7/9-9--12\11-12\11-12\11-7-7/9-9-
-9--5-5-7-7-10--9-10--9-10--9-5-5-7-7--9--5-5/7-7--10\-9-10\-9-10\-9-5-5/7-7-
-7-------------------------------------7-------------------------------------



verse:
-------------------------------------------------------
-------------------------------------------------------
-------------------------------------------------------
----------------------5p4--5p4---5p4------------------- (play this as many 
-----5--5/7----7------------------------5--5/7-7/(12)--	times as needed)
-7-----------------------------------------------------




----7-7/9-9-12\11-12\11-12\11-7-7/9-9-----7-7/9-9--12\11-12\11-12\11-7-7/9-9-
-9--5-5/7-7-10\-9-10\-9-10\-9-5-5/7-7--9--5-5/7-7--10\-9-10\-9-10\-9-5-5/7-7-
-7-------------------------------------7-------------------------------------

 ------------------------------------------------------------------------
----------5^(1/2)---------------------------5^(1/2)---------------------
-(5)/7-7----------7--6-5-5-5-0-4-5-5-6--7-7--------7--6-5-5-5-0-4-5-5-6-

------------------------------
------------------------------
------------------------------
------------------------------
----------5^(1/2)-------------
-(5)/7-7----------7--6-5-5-5--



 E                 D
--------------------------------------------------
--------------------------------------------------
-9-----------------7------------------------------
-9-----------------7------------------------------
-7-----------------5------------------------------
--------------------------------------------------


---------------------------------------------
---------------------------------------------
---------------------------------------------
------------------7h8h9---------------7h8h9--
-9-9--5h6h7-7h8h9------9-9-5h6h7-7h8h9-------
-7-7-------------------7-7-------------------

                 
--------------------------------------------------
--------------------------------------------------
-9-----------------7------------------------------
-9-----------------7------------------------------
-7-----------------5------------------------------
--------------------------------------------------

--------------------------------------------
--------------------------------------------
--------------------------------------------
-----------------7h8h9---------------7h8h9--
-9-9--5h6h7-7h8h9-----9-9-5h6h7-7h8h9-------
-7-7------------------7-7-------------------


----7-7/9-9-12\11-12\11-12\11-7-7/9-9-----7-7/9-9--12\11-12\11-12\11-7-7/9-9-
-9--5-5/7-7-10\-9-10\-9-10\-9-5-5/7-7--9--5-5/7-7--10\-9-10\-9-10\-9-5-5/7-7-
-7-------------------------------------7-------------------------------------

-------------------------------------------------------
-------------------------------------------------------
-------------------------------------------------------
----------------------5p4--5p4---5p4-------------------
-----5--5/7----7------------------------5--5/7-7/(12)--
-7-----------------------------------------------------


-------------------------------------------------------
-------------------------------------------------------
-------------------------------------------------------
----------------------5p4--5p4---5p4-------------------
-----5--5/7----7------------------------5--5/7-7/(12)--
-7-----------------------------------------------------



--------------------------------------------------
--------------------------------------------------
-9-----------------7------------------------------
-9-----------------7------------------------------
-7-----------------5------------------------------
--------------------------------------------------



-------------------------------------------
-------------------------------------------
-------------------------------------------
---------------7h8h9---------------7h8h9---
-9-9-5h6h7-7h8h9----9-9-5h6h7-7h8h9--------
-7-7----------------7-7--------------------


--------------------------------------------------
--------------------------------------------------
-9-----------------7------------------------------
-9-----------------7------------------------------
-7-----------------5------------------------------
--------------------------------------------------


---------------------------------------------
---------------------------------------------
---------------------------------------------
-----------------7h8h9---------------7h8h9---
-9-9--5h6h7-7h8h9-----9-9-5h6h7-7h8h9--------
-7-7------------------7-7--------------------

----------------------------------------------
----------------------------------------------
-6-----------------6--------------------------
--9-6---------------9-6-----------------------
-----10-9-7------------10-9-7-----------------
-----------7-7h9-9-----------7-7h9-9----------
then it cuts off here to go to paranoid

enjoy





Comments


Popular Ozzy Osbourne tabs & chords
Bark At The Moon 3 Tabs
Crazy TrainIntro Tabs
I Dont Wanna Stop 2 Tabs
Miracle Man 1 Tabs
No Easy Way Out Intro Tabs
Not Going Away Tabs
Perry Mason Tabs
See You On The Other Side Intro Tabs
Steal Away The Night Tabs
Trap Door Intro Tabs


Song lyrics



↑ Back to top | Tablatures and chords are parodies/interpretations of the original songs. You may use it for private study, scholarship, research or language learning purposes only
© 2014 AZChords.com Contact us | Privacy policy | DMCA | Add/correct tabs | Request tabs | Top 50 tabs