>
 >
I Just Want You 1

I Just Want You 1 Guitar Tabs

Ozzy Osbourne - I Just Want You 1 chords, tabs, tablatures, lyrics

Guitar lessons | Add/correct | Request | Top 50 tabs Artists:  A B C D E F G H I J K L M N O P Q R S T U V W X Y Z 0-9

I Just Want You 1 Guitar Tabs – Ozzy Osbourne

CD, Sheet music, Poster

Do you like I Just Want You 1? Share with your friends now
Bass TabsChordsChords v2TabsTabs v2Ukulele
I Just Want You
Ozzy - Ozzmosis

Standard

|----------------|---0-------------|
|--3-----2-------|-----0---------3-|
|----4-----2-----|-------0-----4---|This is the main
|------2-----2---|-----------4-----|progression, just
|2---------------|---------2-------|play it over and over
|----------------|-0---------------|

"I don't ask much, i just want you..."
|-0---------|-------------------------------------------|
|-0----0-3--|-------------------------------------------|
|-0---------|-4--4----2-2--2----------------------------|
|-2---------|-4--4----2-2--2-----2---2------------------|
|-2---------|-2--2----0-0--0-----2---2-----4^---~~~~-0--|
|-0---------|-------3^-------2^--0---0---0--------------|

"I'm sick and tired of being sick and .."
|---0---0---0---0-|---0---0---0---0-|---0---0---0---0-|---0---0---0---0-|
|---0---0---0---0-|---0---0---0---0-|---0---0---0---0-|---0---0---0---0-|
|-------------2---|-4---6---7---9---|-11--9---7---6---|-7---6---4---2---|
|-2---4---5-------|-----------------|-----------------|-----------------|
|-----------------|-----------------|-----------------|-----------------|
|-----------------|-----------------|-----------------|-----------------|

SOLO:
|---------------------|------------------------------|------
|---------------------|---10----15/19^-19-17---------|------
|------------------7~-|/11---/16-------------19^--16-|------
|-------------7/9~----|------------------------------|------
|------5-7~/9---------|------------------------------|------
|-5h7~----------------|------------------------------|------

|-------------------------|--------------------------------------|
|-17^-17^-17^-17^--15-----|-17^-^-^-^-^-^17-15----17-15-17^-15---|
|---------------------16~-|--------------------16-------------16-|
|-------------------------|--------------------------------------|
|-------------------------|--------------------------------------|
|-------------------------|--------------------------------------|

|--------------------------|-------7----7-------------|-----
|--------------------------|----10--------------------|-----
|-------7-------9^-^9p7-9^-|-9^-----9^----9~-7--9-7---|-----
|-----7----7-9~------------|------------------------9-|-----
|-7h9----------------------|--------------------------|-----
|--------------------------|--------------------------|-----

|-10^-7-----7----------------|------------------------------
|----------------------------|------------------------------
|-------10----9~--7-9-9p7----|------------------------------
|-------------------------9~-|------------------------------
|----------------------------|------------------------------
|----------------------------|------------------------------

|------7------7------7------7------7----|-7-7-7------7------7------7------7---|
|-7-10---7-10---7-10---7-10---7-10---10-|-------7-10---7-10---7-10---7-10---7-|
|---------------------------------------|-------------------------------------|
|---------------------------------------|-------------------------------------|
|---------------------------------------|-------------------------------------|
|---------------------------------------|-------------------------------------|
|                                       |                                     \\\\\\
|---------------------------------------|---------------------------------------\\\\\|
|---------------------------------------|--------------------------------------------|
|---------------------------------------|--------------------------------------------|
|---------3/4--4-4--4/5--5-5--5/7--7-7--|-7/9-9-9-9/11-11-11-11/12-12-12-12/14-14-14-|
|---------xh---x-x--xh---x-x--xh---x-x--|-xh--x-x-xh---x--x---xh----x--x--xh----x--x-|
|-0--0-0--1/2--2-2--2/3--3-3--3/5--5-5--|-5/7-7-7-7/9--9--9---9/10-10-10-10/12-12-12-|

|-10-7----7-------------------------------------------|
|------10---10-7-10-7----7----------------------------|
|---------------------10---10-7-9-7---7---------------|
|-----------------------------------9---9-7-9-7---7---|
|-----------------------------------------------9-----|
|-----------------------------------------------------|
|                                                     |
|-----------------------------------------------------|
|-----------------------------------------------------|
|-----------------------------------------------------|
|-14/16--16-16--16\14--14-14--14\12--12-12\11-11-11---|
|--xh-----x--x---xp-----x--x---xp-----x--x-x--x--x----|
|-12/14--14-14--14\12--12-12--12\10--10-10\9--9--9----|

|-10-7----7-------------------------------------------------|
|------10---10-7-10-7----7----------------------------------|
|---------------------10---10-7-9-7---7---------------------|
|-----------------------------------9---9-7-9-7---7---------|
|-----------------------------------------------9-----------|
|-----------------------------------------------------------|
|                                                           |
|-----------------------------------------------------------|
|-----------------------------------------------------------|
|-----------------------------------------------------------|
|--11\9--9-9--9\7--7-7--7/9--9-9--9-\-8-/-9-----------------|
|-----------------------------------------------------------|
|---9\7--7-7--7\5--5-5--5/7--7-7--7-\-6-/-7-----------------|

|---------------------|--------------------------|-------------------------------|
|---------------------|-10^~~-12^~~-13^~~-15^~~--|-17^~~-17-15-------------------|
|-2^~~-4^~~-5^~~-7^~~-|--------------------------|-------------14/16-------------|
|---------------------|--------------------------|-------------------14-12-------|
|---------------------|--------------------------|-------------------------14~~~-|
|---------------------|--------------------------|-------------------------------|

"There are no unachievable goals..."
|------------------|---4---------------|
|---7------6-------|-----4---------7---|
|-----8------6-----|-------4-----8-----|
|-------8------6---|-----------8-------|
|-6----------------|---------6---------|
|------------------|-4-----------------|

|---------------------4--------------------|
|-----6h7-----7p6-------4------------------|
|-----------------6-------4----------------|
|---8-------6---------------3/4----3~~~----|
|-6-------4-----------------xh-----x-------|
|-------------------4-------1/2----1-------|





Comments


Popular Ozzy Osbourne tabs & chords
Back On Earth Bass Tabs
S.A.T.O. Bass Tabs
The Ultimate Sin Bass Tabs
Centre Of Eternity Tabs
Dont Blame Me Tabs
Dreamer 3 Tabs
Facing Hell 2 Tabs
Life Wont Wait Tabs
Symptom Of The Universe Tabs
Tears Tabs


Song lyrics



↑ Back to top | Tablatures and chords are parodies/interpretations of the original songs. You may use it for private study, scholarship, research or language learning purposes only
© 2014 AZChords.com Contact us | Privacy policy | DMCA | Add/correct tabs | Request tabs | Top 50 tabs