» » »

Ozzy Osbourne, Dreamer Tabs (ver.2)

Artists:  A B C D E F G H I J K L M N O P Q R S T U V W X Y Z # 

Dreamer Tabs (ver.2)

Ozzy Osbourne Tabs
 Rating:
4/5 (4 votes)
Dreamer lessons Tabs too difficult? Try these video lessons and learn fast
1
                Ozzy Osbourne - Dreamer


I don't think it's the original way to play it(both Chords and Solo),
but it sounds really great because it is like the piano and the bass at the beginning.


The Song is in C# and my tab would be in C, so use a capo on the first fret(except the solo):


-> Order of the Song

-Intro
-piano/bass part
-piano/bass part
-Chorus
-piano/bass part
-Interlude
-Solo
-part of the intro
-piano/bass part
-Chorus
-Chorus
-Outro(=Intro)


-> Intro piano/bass:

   play this 2 times (without a plectron):

e|-----3-3-1-1-0-0-----0-0-|
B|-----------------3-3-----|
G|-------0---0---0---0-----|
D|-------------------------|
A|---3---------------3-----|
E|-3-----------------------|




-> piano/bass part:

   (without a plectron or just play each chord once):

        [C]                [Am]
e|-----------------|-----------------|
B|-1---1---1---1---|-1---1---1---1---|
G|-0---0---0---0---|-2---2---2---2---|
D|-2-2-2-2-2-2-2-2-|-2-2-2-2-2-2-2-2-|
A|-3-------------3-|-0-------------0-|
E|-----------------|-----------------|


        [C]                [Am]
e|-----------------|-----------------|
B|-1---1---1---1---|-1---1---1---1---|
G|-0---0---0---0---|-2---2---2---2---|
D|-2-2-2-2-2-2-2-2-|-2-2-2-2-2-2-2-2-|
A|-3-------------3-|-0-------------0-|
E|-----------------|-----------------|


        [F]                [Dm]
e|-----------------|-1---1---1---1---|
B|-1---1---1---1---|-3---3---3---3---|
G|-2---2---2---2---|-2-2-2-2-2-2-2-2-|
D|-3-3-3-3-3-3-3-3-|-0-------------0-|
A|-----------------|-----------------|
E|-1-------------1-|-----------------|


        [G]          [G4]    [G]
e|-3---3---3---3---|-3---3---3---3---|
B|-0---0---0---0---|-1---1---0---0---|
G|-0-0-0-0-0-0-0-0-|-0-0-0-0-0-0-0-0-|
D|-----------------|-----------------|
A|-----------------|-----------------|
E|-3-------------3-|-3-------------3-|



-> Chorus:
   (just normal strumming)

|: C | Am| Em| G :|

|: 0 | 0 | 0 | 3 :|
|: 1 | 1 | 0 | 0 :|
|: 0 | 2 | 0 | 0 :|
|: 2 | 2 | 2 | 0 :|
|: 3 | 0 | 2 | 2 :|
|: x | x | 0 | 3 :|


-> Interlude:

| Dm| G | Dm| G | Dm| G | Dm| G |

| 1 | 3 |
| 3 | 0 |
| 2 | 0 |
| 0 | 0 |
| x | 2 |
| x | 3 |


-> to the Solo:
   (Solo without capo
    Chords with capo)


        [C]                [Am]               [C]
|--------------------|---------------|------------------6-|
|--------------------|---------------|----------4-6-7-9---|
|-----6-8-8b10r8-6-8-|---------------|--------6-----------|
|---6----------------|-6/8-----------|-(8)\-6-------------|
|--------------------|---------------|--------------------|
|--------------------|---------------|--------------------|

        [Am]                     [C]
|--------------------|------------------------18-|
|--------------------|------------16-18-19-21----|
|-8b10v-----8b10r8-6-|-(6)\----18----------------| (it's the same as before
|--------------------|------18-------------------|  but one octave higher)
|--------------------|---------------------------|
|--------------------|---------------------------|

        [Am]                            [Em]
|----------------------------|--------------------------|
|----------------------------|--------------------------|
|----------------------------|-17r15p13-15b17--15b17r15-| release slowly
|-20b22---20b22-20b22--20b22-|--------------------------| to the next note
|----------------------------|--------------------------|
|----------------------------|--------------------------|

        [G]                                       [?]               [?]
|------------------------------------------|-----------------|-----------------|
|---------------------------------13-14-16-|-16b18-----------|-----------------|
|-13---------------------13-15-17----------|-----------------|-----------------|
|---------------13-15-16-------------------|-----------------|-----------------|
|------13-15-16----------------------------|-----------------|-----------------|
|------------------------------------------|-----------------|-----------------|

easier:13h15h16 13h15h16 13h15h17 13h14h16

          just when the solo ends
          you can play:(with capo)         |-----------------|-----------------|
                                           |-1---1---1---1---|-1---1---1---1---|
                                           |-0---0---0---0---|-0---0---0---0---|
                                           |-----------------|-----------------|
                                           |-3---3---1---1---|-0---0-----------|
                                           |-----------------|---------4---4---|
            
Submit corrections

comments powered by Disqus
↑ Back to top | Ozzy Osbourne Tabs for Dreamer. Lyrics for acoustic guitar and electric guitar. 1 Tablatures and chords are parodies/interpretations of the original songs. You may use it for private study, scholarship, research or language learning purposes only