» » »

Ozzy Osbourne, Diary Of A Madman Tabs (ver.2)

Artists:  A B C D E F G H I J K L M N O P Q R S T U V W X Y Z # 

Diary Of A Madman Tabs (ver.2)

Ozzy Osbourne Tabs
Rating:
0/5 (0 votes)
Diary Of A Madman lessons Tabs too difficult? Try these video lessons and learn fast
                Ok.this is the my version of diary of a madman including the solo.....
---------0-------|---------0-------|---------5-------|--------5------|--------
-------4---4-----|-------4---4-----|-------4---4-----|------3---3----|--------
-----6-------6---|-----6-------6---|-----5-------5---|----4-------4--|--------
---7-----------7-|---5-----------5-|---4-----------4-|--3-----------3|--------
-0---------------|-0---------------|-0---------------|0--------------|--------
-----------------|-----------------|-----------------|---------------|--------
                                                                              

---------0------|---------0------|-----------0------|-----------0-------|-----
-------2---2----|-------1---1----|------1-------1---|------3-------3----|-----
-----4-------4--|-----4-------4--|----4---4-------4-|----2---2-------2--|-----
---2-----------2|---2-----------2|------------------|------------------3|-----
-0--------------|-0--------------|------------------|-------------------|-----
----------------|----------------|-3----------------|-1-----------------|-----
                                                                              

-------------------------0-----|------------------------------------|---------
-----------------0---0-0---0-3-|------------------------------------|---------
-----------1---1---1---------4-|-----5---4-----2---4---5---4---2----|---------
-----4---4---4-----------------|---2---2-----2---2---2---2---2---2--|---------
---2---2-----------------------|-0---------0------------------------|---------
-0-----------------------------|------------------------------------|---------
                                                                              

-------------------------------|--------------------------------------|-------
-------------------------------|--------------------------------------|-------
-----5---4---2---4---5---4-----|-----5---4-------2---4---5---4---2----|-------
---2---2---2---2---2---2-------|---2---2---2---2---2---2---2---2---2--|-------
-0-----------------------------|-0-----------0------------------------|-------
-----------------------------0-|--------------------------------------|-------
                                                                              

-----------------------------|------------------------------------------------
-----------------------------|------------------------------------------------
-----5---4---2---4--5---4----|------------------------------------------------
---2---2---2---2--2---2------|------------------------------------------------
-0--------------------------2|------------------------------------------------
----------------------------0|------------------------------------------------
            

comments powered by Disqus
↑ Back to top | Ozzy Osbourne Tabs for Diary Of A Madman. Lyrics for acoustic guitar and electric guitar. Tablatures and chords are parodies/interpretations of the original songs. You may use it for private study, scholarship, research or language learning purposes only