» » »

Ozzy Osbourne, Civilize The Universe Bass tabs (ver.1)

Artists:  A B C D E F G H I J K L M N O P Q R S T U V W X Y Z # 

Civilize The Universe Bass tabs (ver.1)

Ozzy Osbourne Tabs
 Rating:
4/5 (4 votes)
Civilize The Universe lessons Tabs too difficult? Try these video lessons and learn fast
1
                Ozzy Osbourne - Civilize the Universe


   S S S S S S S S S S S S S S S S   S S S S S S S S S S S S S S S S  (4X)
G|----------------------------------|----------------------------------|
D|X---------------------------------|---------------------------------X|
A|X-5-5-5-5-5-5-5-5-5-5-5-5-5-5-5-5-|-8-8-8-8-8-8-8-8-3-3-3-3-3-3-3-3-X|
D|----------------------------------|----------------------------------|


   E   E   S S S S E   E   S S S S   E   E   S S S S E   S E   S S S  
G|----------------------------------|---------------------------------|
D|X---------------------------------|---------------------------------|
A|X---------5-3-0-----------5-3-0---|---------5-3-0---3---R-3---R-3-5-|
D|--0---0---------5-0---0---------5-|-0---0---------5-----------------|


   E   E   S S S S E   E   S S S S   E   E   S S S S S S S S S S S S (2X)
G|---------------------------------|----------------------------------|
D|---------------------------------|---------------------------------X|
A|---------5-3-0-----------5-3-0---|---------5-3-0-------------------X|
D|-0---0---------5-0---0---------5-|-0---0---------5-5-3-0-5-3-0-5-3--|


   S S S S S S S S S S S S S S S S   S S S S S S S S S S S S S S S S  (3X)
G|----------------------------------|----------------------------------|
D|X---------------------------------|---------------------------------X|
A|X-5-5-5-5-5-5-5-5-5-5-5-5-5-5-5-5-|-8-8-8-8-8-8-8-8-3-3-3-3-3-3-3-3-X|
D|----------------------------------|----------------------------------|


   S S S S S S S S S S S S S S S S   S S S S S S S S S S S S S S S S   
G|---------------------------------|---------------------------------|
D|---------------------------------|---------------------------------|
A|-5-5-5-5-5-5-5-5-5-5-5-5-5-5-5-5-|-8-8-8-8-8-8-8-8-----------------|
D|---------------------------------|-----------------5-3-0-5-3-0-5-3-|


   S S S S S S S S S S S S S S S S   S S S S S S S S S S S S S S S S  
G|---------------------------------|---------------------------------|
D|---------------------------------|---------------------------------|
A|-5-5-5-5-5-5-5-5-5-5-5-5-5-5-5-5-|-8-8-8-8-8-8-8-8-3-3-3-3-3-3-3-3-|
D|---------------------------------|---------------------------------|


   S S S S S S S S S S S S S S S S   S S S S S S S S S S S S S S S S   
G|---------------------------------|---------------------------------|
D|---------------------------------|---------------------------------|
A|-5-5-5-5-5-5-5-5-5-5-5-5-5-5-5-5-|-8-8-8-8-8-8-8-8-----------------|
D|---------------------------------|-----------------5-3-0-5-3-0-5-3-|


   S S S S S S S S S S S S S S S S   S S S S S S S S S S S S S S S S  (2X)
G|----------------------------------|----------------------------------|
D|X---------------------------------|---------------------------------X|
A|X-5-5-5-5-5-5-5-5-5-5-5-5-5-5-5-5-|-8-8-8-8-8-8-8-8-3-3-3-3-3-3-3-3-X|
D|----------------------------------|----------------------------------|


   E   E   S S S S E   E   S S S S   E   E   S S S S E   S E   S S S  
G|----------------------------------|---------------------------------|
D|X---------------------------------|---------------------------------|
A|X---------5-3-0-----------5-3-0---|---------5-3-0---3---R-3---R-3-5-|
D|--0---0---------5-0---0---------5-|-0---0---------5-----------------|


   E   E   S S S S E   E   S S S S   E   E   S S S S S S S S S S S S (2X)
G|---------------------------------|----------------------------------|
D|---------------------------------|---------------------------------X|
A|---------5-3-0-----------5-3-0---|---------5-3-0-------------------X|
D|-0---0---------5-0---0---------5-|-0---0---------5-5-3-0-5-3-0-5-3--|


   S S S S S S S S S S S S S S S S   S S S S S S S S S S S S S S S S  (5X)
G|----------------------------------|----------------------------------|
D|X---------------------------------|---------------------------------X|
A|X-5-5-5-5-5-5-5-5-5-5-5-5-5-5-5-5-|-8-8-8-8-8-8-8-8-3-3-3-3-3-3-3-3-X|
D|----------------------------------|----------------------------------|


   S S S S S S S S S S S S S S S S   S S S S S S S S S S S S S S S S   
G|---------------------------------|---------------------------------|
D|---------------------------------|---------------------------------|
A|-5-5-5-5-5-5-5-5-5-5-5-5-5-5-5-5-|-8-8-8-8-8-8-8-8-----------------|
D|---------------------------------|-----------------5-3-0-5-3-0-5-3-|


   S S S S S S S S S S S S S S S S   S S S S S S S S S S S S S S S S  
G|---------------------------------|---------------------------------|
D|---------------------------------|---------------------------------|
A|-5-5-5-5-5-5-5-5-5-5-5-5-5-5-5-5-|-8-8-8-8-8-8-8-8-3-3-3-3-3-3-3-3-|
D|---------------------------------|---------------------------------|


   S S S S S S S S S S S S S S S S   S S S S S S S S S S S S S S S S   
G|---------------------------------|---------------------------------|
D|---------------------------------|---------------------------------|
A|-5-5-5-5-5-5-5-5-5-5-5-5-5-5-5-5-|-8-8-8-8-8-8-8-8-----------------|
D|---------------------------------|-----------------5-3-0-5-3-0-5-3-|


   S S S S S S S S S S S S S S S S   S S S S S S S S S S S S S S S S  (2X)
G|----------------------------------|----------------------------------|
D|X---------------------------------|---------------------------------X|
A|X-5-5-5-5-5-5-5-5-5-5-5-5-5-5-5-5-|-8-8-8-8-8-8-8-8-3-3-3-3-3-3-3-3-X|
D|----------------------------------|----------------------------------|


   E   E   S S S S E   E   S S S S   E   E   S S S S E   S E   S S S  
G|----------------------------------|---------------------------------|
D|X---------------------------------|---------------------------------|
A|X---------5-3-0-----------5-3-0---|---------5-3-0---3---R-3---R-3-5-|
D|--0---0---------5-0---0---------5-|-0---0---------5-----------------|


   E   E   S S S S E   E   S S S S   E   E   S S S S S S S S S S S S (2X)
G|---------------------------------|----------------------------------|
D|---------------------------------|---------------------------------X|
A|---------5-3-0-----------5-3-0---|---------5-3-0-------------------X|
D|-0---0---------5-0---0---------5-|-0---0---------5-5-3-0-5-3-0-5-3--|


    S S S S E   Q       S S E   E     S S S S E   Q       S S S S S  S  S  S  (4X)
G|----------------------------------|------------------------------------------|
D|X---------7---------------7-------|---------7-------------------------------X|
A|X---------------------------------|-----------------------------------------X|
D|--7-7-7-7-----7-------7-7-----7---|-7-7-7-7-----7-------8-8-8-8-5--10-10-10--|


   E   E   S S S S E   E   S S S S   E   E   S S S S E   S E   S S S  
G|----------------------------------|---------------------------------|
D|X---------------------------------|---------------------------------|
A|X---------5-3-0-----------5-3-0---|---------5-3-0---3---R-3---R-3-5-|
D|--0---0---------5-0---0---------5-|-0---0---------5-----------------|


   E   E   S S S S E   E   S S S S   E   E   S S S S S S S S S S S S (2X)
G|---------------------------------|----------------------------------|
D|---------------------------------|---------------------------------X|
A|---------5-3-0-----------5-3-0---|---------5-3-0-------------------X|
D|-0---0---------5-0---0---------5-|-0---0---------5-5-3-0-5-3-0-5-3--|


   S S S S S S S S S S S S S S S S   S S S S S S S S S S S S S S S S  (8X)
G|----------------------------------|----------------------------------|
D|X---------------------------------|---------------------------------X|
A|X-5-5-5-5-5-5-5-5-5-5-5-5-5-5-5-5-|-8-8-8-8-8-8-8-8-3-3-3-3-3-3-3-3-X|
D|----------------------------------|----------------------------------|


   E   E   S S S S E   E   S S S S   E   E   S S S S E   S E   S S S  
G|----------------------------------|---------------------------------|
D|X---------------------------------|---------------------------------|
A|X---------5-3-0-----------5-3-0---|---------5-3-0---3---R-3---R-3-5-|
D|--0---0---------5-0---0---------5-|-0---0---------5-----------------|


   E   E   S S S S E   E   S S S S   E   E   S S S S S S S S S S S S (4X)
G|---------------------------------|----------------------------------|
D|---------------------------------|---------------------------------X|
A|---------5-3-0-----------5-3-0---|---------5-3-0-------------------X|
D|-0---0---------5-0---0---------5-|-0---0---------5-5-3-0-5-3-0-5-3--|


   E   E   S S S S E   E   S S S S  (4X)
G|-----------------------------------|
D|X---------------------------------X|
A|X---------5-3-0-----------5-3-0---X|
D|--0---0---------5-0---0---------5--|

Good song... Hope it's right.  Have fun.
            
Submit corrections

comments powered by Disqus
↑ Back to top | Ozzy Osbourne Bass for Civilize The Universe. Lyrics for acoustic guitar and electric guitar. 1 Tablatures and chords are parodies/interpretations of the original songs. You may use it for private study, scholarship, research or language learning purposes only