» » »

Ozzy Osbourne, Can You Hear Them? Tabs (ver.1)

Artists:  A B C D E F G H I J K L M N O P Q R S T U V W X Y Z # 

Can You Hear Them? Tabs (ver.1)

Ozzy Osbourne Tabs
Rating:
0/5 (0 votes)
Can You Hear Them? lessons Tabs too difficult? Try these video lessons and learn fast
                intro riff- just hit a bunch of open E's
--------------------------------------------P.M------------------
-00-0-000-0-0000-0-000-0--000-00-00------------------------------



verse-w/distortion
-5--12-11---7-8--11--5-12-11~---5-12-11--7-8-11--5-12-4~---------



main verse-w/dist.
---------------------------------5-3------------------------------5b-3b--------(x4)-
-------------------------------------4-2-4-2----------------------------4b-2b-------
-----------------------------------------4-2-3--------------------------------------
pick slide///----------------------------2-0-3--------------------------------------
-------------00000000000000000000------------1--000000000000000000------------------



chorus-w/dist.
---------------------------------------
-----3-------5------3------------------
-3--3-3--5--5-5-3--3-3-5--6--8---------
-3-3-----5-5----3-3----5--6--8---------
-1-------3------1------3--4--6---------
---------------------------------------




-5--12-11--7-8--11--5-12-11~---5-12-11--7-8--11--5-12-4~---------



interlude-clean
------0------------0--------0----0--------------
---------------------------0-0--0-0-------------
----6---6--------2---2--------------------------
--6------6-----2------2-------------------------
4---------4--0---------0------------------------
--------------------------2----1----------------



-------0-------0------------0------0------------
------------------------------------------(x4)--
-----6--6----6--6---------2--2---2--2-----------
---6-----6--6----6------2-----2-2----2----------
-4--------4--------4--0--------0----------------
------------------------------------------------


w/distortion
------------------------
------------------------
-6--4--2----------------
-6--4--2--6--4--2-------
-4--2--0--6--4--2-------
----------4--2--0-------



Well thats it.Im 100% positive
that i covered the whole song 
execpt for the solo, which 
actully isnt that hard,Ill
post it asap.
            

comments powered by Disqus
↑ Back to top | Ozzy Osbourne Tabs for Can You Hear Them?. Lyrics for acoustic guitar and electric guitar. Tablatures and chords are parodies/interpretations of the original songs. You may use it for private study, scholarship, research or language learning purposes only