» » »

Idlewild Blue Tabs (ver.2)

Artists:  A B C D E F G H I J K L M N O P Q R S T U V W X Y Z # 

Idlewild Blue Tabs (ver.2)

Outkast
Rating:
5/5 (1 vote)

Hard to play? Try these video lessons and learn fast.
                                                               Idlewild Blue
                                                  Outkast


Intro:
                                D7         E     B7
|-------0---------0---------0---2--0-------0-----2---|
|----3---------2---------1------1--1---1---0-----4---|
|-4---------3---------2---------2----------1-----2---|
|------------------------------------------2-----4---|
|------------------------------------------------2---|
|----------------------------------------------------|



Chorus:
 Em
|-----------------------------------------------|-----------------------------------------------|
|-----------------------------------------------|-----------------------------------------------|
|-----------------------------------------------|-----------------------------------------------|
|---------------0h2p0----------------0h2p0h2----|---------------0h2p0----------------0h2p0h2----|
|--------0-2-------------------2--2-------------|--------0-2-------------------2--2-------------|
|-0---3------------------0---3------------------|-0---3------------------0---3------------------|

|-----------------------------------------------|-----------------------------------------------|
|-----------------------------------------------|-----------------------------------------------|
|-----------------------------------------------|-----------------------------------------------|
|---------------0h2p0----------------0h2p0h2----|---------------0h2p0----------------0h2p0h2----|
|--------0-2-------------------2--2-------------|--------0-2-------------------2--2-------------|
|-0---3------------------0---3------------------|-0---3------------------0---3------------------|


At (00:39):
  B7
|----------------------------------------------------------------------------------------|
|-0---0----0--0--------0---0----0--0--------0---0----0--0-------0--0-0--0-0--0-0--0-0----|
|-2---2----2--2--------2---2----2--2--------2---2----2--2-------2--2-2--2-2--2-2--2-2----|
|-1---1----1--1--------1---1----1--1--------1---1----1--1-------1--1-1--1-1--1-1--1-1----|
|-2---2----2--2--------2---2----2--2--------2---2----2--2-------2--2-2--2-2--2-2--2-2----|
|----------------------------------------------------------------------------------------|

The song repeats itself after that
            
Hard to play? Try these video lessons and learn fast. | Correct




comments powered by Disqus
↑ Back to top | Tablatures and chords are parodies/interpretations of the original songs. You may use it for private study, scholarship, research or language learning purposes only