>
 >
Idlewild Blue

Idlewild Blue Guitar Tabs

Outkast - Idlewild Blue chords, tabs, tablatures, lyrics

Guitar lessons | Add/correct | Request | Top 50 tabs Artists:  A B C D E F G H I J K L M N O P Q R S T U V W X Y Z 0-9

Idlewild Blue Guitar Tabs – Outkast

CD, Sheet music, Poster

Do you like Idlewild Blue? Share with your friends now
TabsTabs v2
This tab is in standard tuning E,A,D,G,B,e and it is in swing time.
Thx Let me know how its working out 8D (it's my first tab)



Intro:
                                              
|-----0---------0---------0-----2--0-------0---0~~-|
|---3---------2---------1-------1--1---1---0---0~~-|
|-4---------3---------2---------2----------1---2~~-|
|------------------------------------------2---1~~-|
|----------------------------------------------2~~-|
|----------------------------------------------0~~-|


|---------------------------------------------------------|
|---------------------------------------------------------|
|---------------------------------------------------------|
|------0h2p0----------0h2p0--------0h2p0----------0h2p0---|
|-----2-----------2-2------------2------------2-2---------|
|--0-3--------0-3------------0-3----------0-3-------------|


|----------------------------------------------------------|
|----------------------------------------------------------|
|----------------------------------------------------------|
|--------0h2p0---------0h2p0--------0h2p0----------0h2p0---|
|------2-----------2-2------------2------------2-2---------|
|--0-3----------0-3-----------0-3----------0-3-------------|

Verse 1:

|----------------------------------------------------------|
|----------------------------------------------------------|
|----------------------------------------------------------|
|--------0h2p0---------0h2p0--------0h2p0----------0h2p0---|
|------2-----------2-2------------2------------2-2---------|
|--0-3----------0-3-----------0-3----------0-3-------------|
  People.....             Don't you worry bout me                
|----------------------------------------------------------|
|----------------------------------------------------------|
|----------------------------------------------------------|
|--------0h2p0---------0h2p0--------0h2p0----------0-------|
|------2-----------2-2------------2------------2-2---------|
|--0-3----------0-3-----------0-3----------0-3-------------|
  Evil ...                don't get burried by me                


|-0-x-0--0-0-0---0-x-0---0-0-0---0-0-0-0-0-0-0--| 
|-0-x-0--0-0-0---0-x-0---0-0-0---0-0-0-0-0-0-0--|
|-2-x-2--2-2-2---2-x-2---2-2-2---2-2-2-2-2-2-2--|
|-1-x-1--1-1-1---1-x-1---1-1-1---1-1-1-1-1-1-1--|
|-2-x-2--2-2-2---2-x-2---2-2-2---2-2-2-2-2-2-2--|
|-----------------------------------------------|
    ^              ^
    |[Slap strings]| 
                               
|----------------------------------------------------------|
|----------------------------------------------------------|
|----------------------------------------------------------|
|--------0h2p0---------0h2p0--------0h2p0----------0h2p0---|
|------2-----------2-2------------2------------2-2---------|
|--0-3----------0-3-----------0-3----------0-3-------------|

|----------------------------------------------------------|
|----------------------------------------------------------|
|----------------------------------------------------------|
|--------0h2p0---------0h2p0--------0h2p0----------0h2p0---|
|------2-----------2-2------------2------------2-2---------|
|--0-3----------0-3-----------0-3----------0-3-------------|

Verse 2:

|----------------------------------------------------------|
|----------------------------------------------------------|
|----------------------------------------------------------|
|--------0h2p0---------0h2p0--------0h2p0----------0h2p0---|
|------2-----------2-2------------2------------2-2---------|
|--0-3----------0-3-----------0-3----------0-3-------------|
   Mama...                  Don't you worrie bout me                  
|----------------------------------------------------------|
|----------------------------------------------------------|
|----------------------------------------------------------|
|--------0h2p0---------0h2p0--------0h2p0----------0-------|
|------2-----------2-2------------2------------2-2---------|
|--0-3----------0-3-----------0-3----------0-3-------------|
   Papa..                  don't you worrie...    Well...           

|-0-x-0--0-0-0---0-x-0---0-0-0---0-0-0-0-0-0-0--| 
|-0-x-0--0-0-0---0-x-0---0-0-0---0-0-0-0-0-0-0--| 
|-2-x-2--2-2-2---2-x-2---2-2-2---2-2-2-2-2-2-2--|  
|-1-x-1--1-1-1---1-x-1---1-1-1---1-1-1-1-1-1-1--|
|-2-x-2--2-2-2---2-x-2---2-2-2---2-2-2-2-2-2-2--|
|-----------------------------------------------|
    ^              ^
    |[Slap strings]| 
I live a life...          I Know im your son..           

|----------------------------------------------------------|
|----------------------------------------------------------|
|----------------------------------------------------------|
|--------0h2p0---------0h2p0--------0h2p0----------0h2p0---|
|------2-----------2-2------------2------------2-2---------|
|--0-3----------0-3-----------0-3----------0-3-------------|
   Comone...                                                        
|----------------------------------------------------------|
|----------------------------------------------------------|
|----------------------------------------------------------|
|--------0h2p0---------0h2p0--------0h2p0----------0h2p0---|
|------2-----------2-2------------2------------2-2---------|
|--0-3----------0-3-----------0-3----------0-3-------------|
                                                             
Verse 3:

|----------------------------------------------------------|
|----------------------------------------------------------|
|----------------------------------------------------------|
|--------0h2p0---------0h2p0--------0h2p0----------0h2p0---|
|------2-----------2-2------------2------------2-2---------|
|--0-3----------0-3-----------0-3----------0-3-------------|
   Sally ...              Don't you worrie bout me  
         
|----------------------------------------------------------|
|----------------------------------------------------------|
|----------------------------------------------------------|
|--------0h2p0---------0h2p0--------0h2p0----------0-------|
|------2-----------2-2------------2------------2-2---------|
|--0-3----------0-3-----------0-3----------0-3-------------|
   Sally...               Don't you worrie bout me   
       
|-0-x-0--0-0-0---0-x-0---0-0-0---0-0-0-0-0-0-0--| 
|-0-x-0--0-0-0---0-x-0---0-0-0---0-0-0-0-0-0-0--| 
|-2-x-2--2-2-2---2-x-2---2-2-2---2-2-2-2-2-2-2--|  
|-1-x-1--1-1-1---1-x-1---1-1-1---1-1-1-1-1-1-1--|
|-2-x-2--2-2-2---2-x-2---2-2-2---2-2-2-2-2-2-2--|
|-----------------------------------------------|
    ^              ^
    |[Slap strings]| 
  Don't worrie...           thats what i tell ... 
                    
|----------------------------------------------------------|
|----------------------------------------------------------|
|----------------------------------------------------------|
|--------0h2p0---------0h2p0--------0h2p0----------0h2p0---|
|------2-----------2-2------------2------------2-2---------|
|--0-3----------0-3-----------0-3----------0-3-------------|
    commone...                                                       
|----------------------------------------------------------|
|----------------------------------------------------------|
|----------------------------------------------------------|
|--------0h2p0---------0h2p0--------0h2p0----------0-------|
|------2-----------2-2------------2------------2-2---------|
|--0-3----------0-3-----------0-3----------0-3-------------|
                                                             
Verse 4:

|----------------------------------------------------------|
|----------------------------------------------------------|
|----------------------------------------------------------|
|--------0h2p0---------0h2p0--------0h2p0----------0h2p0---|
|------2-----------2-2------------2------------2-2---------|
|--0-3----------0-3-----------0-3----------0-3-------------|
  Some call it....           Some call it....          
|----------------------------------------------------------|
|----------------------------------------------------------|
|----------------------------------------------------------|
|--------0h2p0---------0h2p0--------0h2p0----------0-------|
|------2-----------2-2------------2------------2-2---------|
|--0-3----------0-3-----------0-3----------0-3-------------|
  Some call it...             Whatever you...

|-0-x-0--0-0-0---0-x-0---0-0-0---0-0-0-0-0-0-0--| 
|-0-x-0--0-0-0---0-x-0---0-0-0---0-0-0-0-0-0-0--| 
|-2-x-2--2-2-2---2-x-2---2-2-2---2-2-2-2-2-2-2--|  
|-1-x-1--1-1-1---1-x-1---1-1-1---1-1-1-1-1-1-1--|
|-2-x-2--2-2-2---2-x-2---2-2-2---2-2-2-2-2-2-2--|
|-----------------------------------------------|
    ^              ^
    |[Slap strings]| 
  Play untill you... 
                     
|----------------------------------------------------------|
|----------------------------------------------------------|
|----------------------------------------------------------|
|--------0h2p0---------0h2p0--------0h2p0----------0h2p0---|
|------2-----------2-2------------2------------2-2---------|
|--0-3----------0-3-----------0-3----------0-3-------------|
                                                            
|----------------------------------------------------------|
|----------------------------------------------------------|
|----------------------------------------------------------|
|--------0h2p0---------0h2p0--------0h2p0----------0h2p0---|
|------2-----------2-2------------2------------2-2---------|
|--0-3----------0-3-----------0-3----------0-3-------------|
                                                            
|----------------------------------------------------------|
|----------------------------------------------------------|
|----------------------------------------------------------|
|--------0h2p0---------0h2p0--------0h2p0----------0h2p0---|
|------2-----------2-2------------2------------2-2---------|
|--0-3----------0-3-----------0-3----------0-3-------------|
                                                           
|----------------------------------------------------------|
|----------------------------------------------------------|
|----------------------------------------------------------|
|--------0h2p0---------0h2p0--------0h2p0----------0h2p0---|
|------2-----------2-2------------2------------2-2---------|
|--0-3----------0-3-----------0-3----------0-3-------------|

|----------------------------------------------------------|
|----------------------------------------------------------|
|----------------------------------------------------------|
|--------0h2p0---------0h2p0--------0h2p0----------0h2p0---|
|------2-----------2-2------------2------------2-2---------|
|--0-3----------0-3-----------0-3----------0-3-------------|
                                                              
|-0-x-0--0-0-0---0-x-0---0-0-0---0-0-0-0-0-0-0--| 
|-0-x-0--0-0-0---0-x-0---0-0-0---0-0-0-0-0-0-0--| 
|-2-x-2--2-2-2---2-x-2---2-2-2---2-2-2-2-2-2-2--|  End
|-1-x-1--1-1-1---1-x-1---1-1-1---1-1-1-1-1-1-1--|
|-2-x-2--2-2-2---2-x-2---2-2-2---2-2-2-2-2-2-2--|
|-----------------------------------------------|









  





Comments


Popular Outkast tabs & chords
Atliens 1 Bass Tabs
Hey Ya 4 Chords
Mrs Jackson Chords
Prototype Chords
Roses Chords
Ms. Jackson Drum Tabs
B.O.B. (Bombs Over Baghdad) Tabs
Bombs Over Baghdad Tabs
So Fresh And So Cean Tabs
Prototype Ukulele


Song lyrics



↑ Back to top | Tablatures and chords are parodies/interpretations of the original songs. You may use it for private study, scholarship, research or language learning purposes only
© 2014 AZChords.com Contact us | Privacy policy | DMCA | Add/correct tabs | Request tabs | Top 50 tabs