» » »

Take Off Your Cool Tabs (ver.1)

Artists:  A B C D E F G H I J K L M N O P Q R S T U V W X Y Z # 

Take Off Your Cool Tabs (ver.1)

Outkast
Rating:
5/5 (15 votes)

Tabs too difficult? Try these video lessons and learn fast.
                -------------------------------------------------------------------------------
-------------------------------------------------------------------------------


This sounds right to me. I'll tab Nora Jones' solo if I have time.
Questions? Comments? Email.

Tuning: standard

Fade in

e|0-0-0-0--0000-|-0-0-0-0--0000-|-0-0-0-0--0000-|-0-0-0-0--0000-|
B|1-1-1-1--1111-|-1-1-1-1--1111-|-1-1-1-1--1111-|-0-0-0-0--0000-|
G|2-2-2-2--2222-|-2-2-2-2--2222-|-0-0-0-0--0000-|-0-0-0-0--0000-|
D|3-3-3-3--3333-|-3-3-3-3--3333-|-2-2-2-2--2222-|-0-0-0-0--0000-|
A|0-0-0-0--0000-|-0-0-0-0--0000-|-3-3-3-3--3333-|-2-2-2-2--2222-|
E|x-x-x-x--xxxx-|-x-x-x-x--xxxx-|-x-x-x-x--xxxx-|-x-x-x-x--xxxx-|x6

e|-----------------------------|----------------------------|
B|------1------1------1------1-|------1------1------1------1|
G|----2------2------2------2---|----2------2------0------0--|
D|--3------3------3------3-----|--3------3------2------2----|
A|0------0------0------0-------|0------0------3------3------|
E|-----------------------------|----------------------------|

e|-----------------------------|-------------3--------------|
B|------0------0------0------0-|------1-------------1------1|
G|----0------0------0------0---|----2------2------2------2--|
D|--2------0------0------0-----|--3------3------3------3----|
A|3------2------2------2-------|0------0------0------0------|
E|-----------------------------|----------------------------|

e|-----------------------------|----------------------------|
B|------1------1------1------3-|------0------0------0------0|
G|----2------2------0------0---|----0------0------0------0--|
D|--3------3------2------2-----|--2------0------0------0----|
A|0------0------3------3-------|3------2------2------2------|
E|-----------------------------|----------------------------|

e|-----------------------------|----------------------------|
B|------1------1------1------1-|------1------1------1------3|
G|----2------2------2------2---|----2------2------0------0--|
D|--3------3------3------3-----|--3------3------2------2----|
A|0------0------0------0-------|0------0------3------3------|
E|-----------------------------|----------------------------|


e|-----------------------------|-------------3--------------|
B|------0------0------0------0-|------1-------------1------1|
G|----0------0------0------0---|----2------2------2------2--|
D|--2------0------0------0-----|--3------3------3------3----|
A|3------2------2------2-------|0------0------0------0------|
E|-----------------------------|----------------------------|

e|------3----------------------|----------------------------|
B|-------------1------1------3-|------0------0------0------1|
G|----2------2------0------0---|----0------0------0------0--|
D|--3------3------2------2-----|--2------0------0------0----|
A|0------0------3------3-------|3------2------2------2------|
E|-----------------------------|----------------------------|


e|0-0-0-0--0000-|-0-0-0-0--0000-|-0-0-0-0--0000-|-0-0-0-0--0000-|
B|1-1-1-1--1111-|-1-1-1-1--1111-|-1-1-1-1--1111-|-0-0-0-0--0000-|
G|2-2-2-2--2222-|-2-2-2-2--2222-|-0-0-0-0--0000-|-0-0-0-0--0000-|
D|3-3-3-3--3333-|-3-3-3-3--3333-|-2-2-2-2--2222-|-0-0-0-0--0000-|
A|0-0-0-0--0000-|-0-0-0-0--0000-|-3-3-3-3--3333-|-2-2-2-2--2222-|
E|x-x-x-x--xxxx-|-x-x-x-x--xxxx-|-x-x-x-x--xxxx-|-x-x-x-x--xxxx-|x7

Fade out on the seventh time


===============================================================================
            
Tabs too difficult? Try these video lessons and learn fast.




comments powered by Disqus
↑ Back to top | Tablatures and chords are parodies/interpretations of the original songs. You may use it for private study, scholarship, research or language learning purposes only