» » »

Outkast, Roses Tabs (ver.2)

Artists:  A B C D E F G H I J K L M N O P Q R S T U V W X Y Z # 

Roses Tabs (ver.2)

Outkast Tabs
Rating:
5/5 (17 votes)
Roses lessons Tabs too difficult? Try these video lessons and learn fast
                Outkast
Tuning: Standard

A fast blues/jazz piano intro from Outkast. You can slow the song on Windows Media 
so you can hear what notes are being played.

Piano Jazz/Bluesy Intro:
|-------------15-12--------------------------------6h7--8-7---------|
|--------------------------------------8-----10-------------8-------|
|---------12---------15p14p12-------------9-----9-------------9-7---|
|---12-14---------------------14----0-----------------------------8-|
|-------------------------------------------------------------------|
|-0-----------------------------------------------------------------|

|---------------------------------------------|
|---------------------------8-7---------------|
|-------------------------------9-7-----7h9---|
|-6h7---5-7-5-7-5-7s9---------------9---------|
|---------------------9-----------------------|
|---------------------------------------------|

|------------------------------------------------------|
|------------------------------8--8h10--8--------------|
|-7------------------------7h9-------------9-----------|
|---9-8-7-5---5h7----8h9---------------------9-8-7--7--|
|-----------7------------------------------------------|
|------------------------------------------------------|

|-----------------------------------------------------|
|---------------------------------3--------4---4------|
|------------------------------------------4---4------|
|-7h8p7-----5h7----4h5---7-5--3h4----4-----4---4------|
|-------7----------------------------------6---6------|
|-----------------------------------------------------|


Verse:
Em        D
Caroline
                               C
All the guys would say she's mighty fine
      Bm                                Am
But mighty fine only got you somewhere half the time
         G                       F           C              D      B7
And the other half either got you cursed out, or coming up short
                     Em
Yeah, now dig this, even though
D                              C
You'd need a golden calculator to divide
F                                    Em
The time it took to look inside and realize that
D                    F              C       B7
Real guys go for real down to Mars girls, yeah!


Chorus:
Em                               D
I know you'd like to thank your sh*t don't stank
      C
But lean a little bit closer
           Bm                      Am
See that roses really smell like poo-oo-ooo
        G                         F     C     D
Yeah, roses really smell like poo-oo-ooo
(x2)


Verse 2:
Em              D                              C
Caroline! See she's the reason for the word "b**ch"
F
I hope she's speeding on the way to the club

Trying to hurry up to get to some

Baller or singer or somebody like that

And try to put on her makeup in the mirror
                                   Em
And crash, crash, crash.. into a ditch! (Just Playing!)
D                              C
She needs a golden calculator to divide
Bm                                    Am
The time it took to look inside and realize that
G                      F   C         D
Real guys go for real down to Mars girls, yeah!


[Chorus]


Verse 3: (Rap)
-For Verse 3 repeat the 1st Verse chords-


[Chorus]


Em                        D
Better come back down to Mars
                     C
Girl, quit chasin' cars

What happens when the dough get so low
F
b**ch, you ain't that fine
Em           D        F   C    B7
No way.. no way.. no way


Outro: -Play these chords- (Crazy b**ch...) (4:59)

Em  D  C  Bm  Am  G  F  C  D  B7  (x2)

Em  D  C  F  Em  D  F  C  B7 (x2) until fade-out

Chords:
Em:   022000
D:    xx0232
C:    x32010
Bm:   x24432
Am:   x02210
G:    320033
F:    133211
B7:   x21202
            
Submit corrections

comments powered by Disqus
↑ Back to top | Outkast Tabs for Roses. Lyrics for acoustic guitar and electric guitar. Tablatures and chords are parodies/interpretations of the original songs. You may use it for private study, scholarship, research or language learning purposes only