>
 >
Under The Weeping Moon

Under The Weeping Moon Guitar Tabs

Opeth - Under The Weeping Moon chords, tabs, tablatures, lyrics

Guitar lessons | Add/correct | Request | Top 50 tabs Artists:  A B C D E F G H I J K L M N O P Q R S T U V W X Y Z 0-9

Under The Weeping Moon Guitar Tabs – Opeth

CD, Sheet music, Poster

Do you like Under The Weeping Moon? Share with your friends now
Tabs
OPETH - Under The Weeping Moon
                            From the Album Orchid
                         Copyright 1995, Candlelight
                         Version 1.0 - september 2000


For Questions, Comments, Newest Version, or Corrections contact me.


Check Out Death Warp, With More Transcriptions On It:

  key: h - hammer on
       p - pull off
       s - slide
       t - tremolo
     ... - echo
      () - silently
       X - repeat aX times

  tune Gtr to EADGHe - standard

 OPETH - under the weeping moon


 0:00 - 0:25  play 1 time
|--0------|--------------------3X
|--0------|---------------------|
|--0------|:-------------------:| gtr.1
|--2------|:--0h2p0------------:|
|--2---1--|---------1-----1-1---|
|--0------|-----------0---------|

|----------------------------------------------------------------------|
|-------------------1--------------------------------------------------|
|-----------2-0h2h3---2------------------------------------------------| gtr.1
|--0h2p0------------------5-5-3-3-2-2-0-----------2-------------2-2-2--|
|--------1----------------------------------2---0-----5-5-3-3-2-2-2-2--|
|---------------------------------------0h3---------------------0-0-0--|


 0:05 - 0:25  play 1 time
|--7----------------------------------------------------------------|
|--8-----------------------1-0h1p0----------------------------------|
|--9-------------------------------4-2-0h2--------------------------| gtr.2
|--------0h2p0----3--0-0-------------------2-s-7---5-5-3-3-2-2s5s2--|
|--------------1----------------------------------------------------|
|-------------------------------------------------------------------|
|                                                                   |
|-------------------------------------------------------------------|
|----------1-0h1p0--------------------------------------------------|
|------------------4-2-0h2------------------------------------------| gtr.2
|--2---0-------------------2-s-7---5-5-3-3-2-2-2-2------------------|
|--------------------------------------------2-2-2------------------|
|--------------------------------------------0-0-0------------------|


 0:26 - 0:56  play 4 times (almost the same (riff for gtr #2) but faster)
|-------|-------------------------------------------------------|
|-------|-----------1-0h1p0-------------------------------------|
|-------|:------------------4-2-0h2----------------------------:|
|--2-2--|:--2---0-0-------------------2-s-7---5-5-3-3-2-2s5s2--:|
|--2-2--|-------------------------------------------------------|
|--0-0--|-------------------------------------------------------|


 0:57 - 1:03  play 1 time
|------------------------------------------------------------------------|
|------------------------------------------------------------------------|
|------------------------------------------------------------------------|
|--2--2-2-2-----------------------------2--2-2-2-------------------------|
|--2--2-2-2----------6s7-7-7------------2--2-2-2----------7p6p0-7p6p0----|
|--0--0-0-0-6s5-5-5-----------6s5-5-5---0--0-0-0-6s5-5-5--------------0--|


 1:04 - 1:25  play 6 times
|--------------------------------------|
|--------------------------------------|
|--------------------------------------|
|--2--2-2-2----------------------------|
|--2--2-2-2----------6s7-7-7-----------|
|--0--0-0-0-6s5-5-5-----------6s5-5-5--|


 1:26 -1:38  play 4 times
|-----------------------|
|-----------------------|
|-----------------------|
|-----------------------|
|--7-7t-s-6t-s-3t-s-2t--|
|-----------------------|


 1:39 - 1:42  play 1 time
|---------------------------|
|---------------------------|
|---------------------------|
|--------------------8-8-8--|
|--7-7tt-7-7tt-7-7tt-8-8-8--|
|--------------------6-6-6--|


 1:43 - 1:55  play 4 times (it's two different guitars in one - sounds well)
|---------------------------------------------------|
|---------------------------------------------------|
|---------------------------------------------------|
|---------------------------------------------------|
|---------------------------------------7--7--------|
|--0--0-7p6p0--0--0-7p6p0--0--0--7p6p0-------7p6p0--|


 1:56 - 2:28  play 4 times (i can't tab correctly the other guitar, sorry)
|----------------------------------------------------|-----|
|----------------------------------------------------|-----|
|----------------------------------------------------|-----| gtr.2
|----------------------------------------------------|-----|
|--7-7tt-7-7tt-7-7tt--------5-5tt-5-5tt-5-5tt-8-8-8--|--3--|
|--------------------6-6-6---------------------------|-----|


 2:29 - 2:45  play 3 times
|---------------------|
|---------------------|
|--3h4p3--------------|
|--------4---3h4p3----|
|------------------3--|
|---------------------|


 2:46 - 3:10
|-----|-----------20X---------------------|
|-----|-------------|---------------------|
|-----|:-----------:|--3h4p3--------------|
|-----|:--4h5-(5)--:|--------4---3h4p3----|
|--3--|-------------|------------------3--|
|-----|-------------|---------------------|


 3:08 - 6:03  play several times (there are noises & voices that i don't tab)
|-----------------------------------|
|------1-------1-------1-------2----|
|----0---0---0---0---0---0---0---0--|
|-----------------------------------|
|--3-------3-------3-------3--------|
|-----------------------------------|

 6:07 - 6:21  play several times
|-------|
|-------|
|--(5)--|
|--(5)--|
|---3t--|
|-------|


 6:22 - 7:00  play several times
|------------|
|------------|
|------------| gtr.1
|------------|
|--3tt--6tt--|
|------------|
|            |
|------------|
|------------|
|------------| gtr.2
|--4h5-------|
|------------|
|------------|


 7:01 - 7:33  under construction


 7:34 - 7:48  play 8 times
|---------7-------|
|------10---10----|
|----9---------9--|
|--7--------------|
|-----------------|
|-----------------|


 7:49 - 8:02  play 1 time
|---------7--------------------------1-----------------|
|------10---10---------------------3---3---------------|
|----9---------9-----------------2-------2-------------|
|--7-------------7h9-10-9--7---3-----------------------|
|------------------------------------------0h2-3-2--2--|
|------------------------------------------------------|
|                                                      |
|--------1-----------0---------------------------------|
|------3---3-------1---1-------------------------------|
|----2-------2---0-------0-------4-----------7---------|
|--0---------------------------5---5-------8---8-------|
|--------------3-------------5-------5---8-------8-----|
|--------------------------3-----------6---------------|


 8:03 - 8:16  play 4 times
|--------0-----1-----0------|
|------0---0-----0-----0----|
|----2-------2-----2-----2--|
|--2------------------------|
|---------------------------|
|---------------------------|


 8:17 - 8:20 play 1 time
|---------------7-------------------|
|------------10---10----------------|
|----------9---------9--------------|
|--------7-------------7h9-10-9--7--|
|-----------------------------------|
|--5s7------------------------------|


 8:21 - 8:43  gtr.1 plays this accompany 1 time
|--------1-----------------------1-----------0------------------------------|
|------3---3-------------------3---3-------1---1----------------------------|
|----2-------2---------------2-------2---0-------0-------4-----------7------|
|--3-----------------------0---------------------------5---5-------8---8----|
|--------------0h2-3-2--2--------------3-------------5-------5---8-------8--|
|--------------------------------------------------3-----------6------------|
|                                                                           |
|---------0-----1-----0------3X--------0------------------------------------|
|-------0---0-----0-----0-----|------0---0----------------------------------|
|:----2-------2-----2-----2--:|----2-------2--------------------------------|
|:--2------------------------:|--2------------------------------------------|
|-----------------------------|---------------------------------------------|
|-----------------------------|---------------------------------------------|


 8:43 - 8:45
|---------------|
|---------------|
|---------------|
|---------------|
|---------------|
|--7-5-3-2h3-2--|


 8:46 - 9:09  play 2 times
|----------------------------------------------------------------|
|----------------------------------------------------------------|
|----------------------------------------------------4-----------|
|----------------------------------5--4----------4-5---7--5-4-5--|
|--7---5---5---------5--7--7-8-7---------7-5-7-------------------|
|--------7----7-5--7---------------------------------------------|


 9:10 - 9:21  play 2 times
|----------------------------|
|----------------------------|
|----------------------------|
|--4h5---4h5---4h5-4--2-0h2--|
|----------------------------|
|----------------------------|


 9:22 - 9:32  play 2 times
|----------------------------|
|----------------------------|
|----------------------------|
|--7h9---7h9---7h9-7--5-4h5--|
|----------------------------|
|----------------------------|


 9:33 - 9:38  play 1 time
|----------------------------|
|----------------------------|
|--7h9---7h9---7h9-7---------|
|---------------------9-7h9--|
|----------------------------|
|----------------------------|


 9:39 - 9:48  play 1 time
|--------------------------------|
|--------------------------------|
|--7h9---7h9-9-------------------|
|----------------------7-9-10-9--|
|---------------7-9-10-----------|
|--------------------------------|



 Check Out Death Warp, With More Transcriptions On It:





Comments


Popular Opeth tabs & chords
Credence Bass Tabs
Demon Of The Fall 2 Bass Tabs
Soldier Of Fortune Chords
Baying Of The Hounds 2 Tabs
Demon (Solo) Tabs
Ending Credits 1 Tabs
Hessian Peel Partial Intro Tabs
Leper Affinity Tabs
Patterns In The Ivy 1 Tabs
The Twilight Is My Robe Tabs


Song lyrics



↑ Back to top | Tablatures and chords are parodies/interpretations of the original songs. You may use it for private study, scholarship, research or language learning purposes only
© 2014 AZChords.com Contact us | Privacy policy | DMCA | Add/correct tabs | Request tabs | Top 50 tabs