>
 >
The Night And The Silent Water

The Night And The Silent Water Bass Tabs

Opeth - The Night And The Silent Water chords, tabs, tablatures, lyrics

Guitar lessons | Add/correct | Request | Top 50 tabs Artists:  A B C D E F G H I J K L M N O P Q R S T U V W X Y Z 0-9

The Night And The Silent Water Bass Tabs – Opeth

CD, Sheet music, Poster

Do you like The Night And The Silent Water? Share with your friends now
Bass TabsTabs
Try not to lose your place cuz finding your place is a b**** in this song                                  
                                             
G||------------------------|-------------------------|------------------------|
D||------------------------|-------------------------|------------------------|
A||------------------------|-----------------0--0----|------------------------|
E||--0---2h3---2-0--0------|--0----2--2h3-3----------|--0---2h3---2-0--0------|


                                                                               
-------------------------||-------------------------|-------------------------|
-------------------------||*------------------------|-------------------------|
-----------------0--0----||*------------------------|-----------------0--0----|
--0----2--2h3-3----------||---0---2h3---2-0--0------|--0----2--2h3-3----------|


                                                                        
------------------------|--------------------------||------------------|
------------------------|-------------------------*||------------------|
------------------------|-----------------0--0----*||------------------|
--0---2h3---2-0--0------|--0----2--2h3-3-----------||------------------|


                                                                 
----------------------|--------------------|--------------------|
----------------------|--------------------|--------------------|
-----------------0----|--2--------0--------|--------------------|
--0----2----3---------|--------------------|--1--------3--------|


                                                             
-------------------|------------------|---------------------|
-------------------|------------------|---------------------|
--5----------------|------------------|--5------5-----------|
-------------------|------------------|------------5--------|


                                                                     
---------------------|----------------------|-----------------------|
---------------------|----------------------|-----------------------|
----------------3----|--5----5--------------|-----------------------|
--3--------5---------|------------5----5----|--0-------0-0--0---0---|


                                                                      
----------------------|-----------------------|----------------------|
----------------------|-----------------------|----------------------|
--5----5--------------|-----------------------|--5----5--------------|
------------5----5----|--0-------0-0--0---0---|------------5----5----|


                                                                       
-----------------------|----------------------|-----------------------|
-----------------------|----------------------|-----------------------|
-----------------------|--5----5--------------|-----------------------|
--0-------0-0--0---0---|------------5----5----|--0-------0-0--0---0---|


                                                                       
-----------------------|----------------------|-----------------------|
-----------------------|----------------------|------------------2----|
--5----5----5---5----5h|--7----7----7----7----|-------3------3h5----5h|
-----------------------|----------------------|-----------------------|


                                                                            
----------------------------|----------------------|-----------------------|
----------------------------|----------------------|-----------------------|
--3-2--0h2-3--2h0-2---------|--5----5--------------|-----------------------|
---------------------0------|------------5----5----|--0-------0-0--0---0---|


                                                                          
|-----------------------|------------------------||----------------------|
|*----------------------|-----------------------*||----------------------|
|*--5----5--------------|-----------------------*||--5----5--------------|
|-------------5----5----|--0-------0-0--0---0----||------------5----5----|


                                                                       
-----------------------|-----------------------|----------------------|
-----------------------|-----------------------|----------------------|
-----------------------|--5----5----5---5----5h|--7----7----7----7----|
--0-------0-0--0---0---|-----------------------|----------------------|


                                                                         
-----------------------|----------------------------|-------------------|
------------------2----|----------------------------|-------------------|
-------3------3h5----5h|--3-2--0h2-3--2h0-2---------|-------------------|
-----------------------|---------------------0------|--0----------------|


                                                                         
----------------------|----------7h9------9----|------------------------|
----------------------|-------7----------------|------------------------|
----------------------|--------------7---------|------------------------|
--0----2----3----5----|--5~--------------------|--1----1-1--1-3----3----|


                                                                           
----------7h9------9----|------------------------|----------7h9------9----|
-------7----------------|------------------------|-------7----------------|
--------------7---------|------------------------|--------------7---------|
--5---------------------|--1----1-1--1-3----3----|--5---------------------|


                                                                           
------------------------|----------7h9------9----|------------------------|
------------------------|-------7----------------|------------------------|
------------------------|--------------7---------|------------------------|
--1----1-1--1-3----3----|--5---------------------|--1----1-1--1-3----3----|


                                                              
----------------------|-------------------|------------------|
----------------------|-------------------|------------------|
----------------------|-------------------|------------------|
--0----2----3----5----|--3----------------|------------------|


                                                         
------------------|------------------|------------------|
------------------|------------------|------------------|
------------------|------------------|------------------|
------------------|------------------|------------------|


                                                3x                           
|----------------------|------------------------||--------------------------|
|*---------------------|-----------------------*||*---2----------2----------|
|*----3----------------|---3-------------------*||*----------3/5--------2/5-|
|---0----------0-------|------------0-0s-0s-0s--||----0----------0----------|


                                                                      2x
----------------------|-------------------------|---------------------||
---2------0/2---------|---2----------2----------|--------------------*||
--------------5-------|----------2-5--------2/5-|---4------------2---*||
---0------------------|---0----------0----------|---------------------||


                                                                           
-------------------------|----------------------|-------------------------|
---2----------2----------|---2------0/2---------|---2----------2----------|
----------3/5--------2/5-|--------------5-------|----------2-5--------2/5-|
---0----------0----------|---0------------------|---0---------------------|


                                                                         
--------------------|--------------------||-----------------------------|
--------------------|--------------------||*----------------------------|
---4------------2---|---3----------------||*----3-------3s--3s----------|
--------------------|------------0-------||---0---------------0---------|


                                                                
------------------------||------------------|------------------|
-----------------------*||------------------|------------------|
---3-------------------*||------------------|------------------|
------------0-0s-0s-0s--||------------------|------------------|


                                                                            
------------------|------------------|------------------|------------------|
------------------|------------------|------------------|------------------|
------------------|------------------|------------------|------------------|
------------------|------------------|------------------|------------------|


                                                                         
------------------|-------------------------|--9-10---------------------|
------------------|----------------------9--|--------------10-----------|
------------------|----------7-------11-----|-------7----------------8--|
------------------|--0----7-------0---------|--------------------0-0----|


                                                                                
-------------------------|-------------------------|--9-10---------------------|
-------------------------|----------------------9--|--------------10-----------|
-----------7-------------|----------7-------11-----|-------7----------------8--|
----0-1-0-----5--7/----0-|--0----7-------0---------|--------------------0-0----|


                                                                                
-------------------------|-------------------------|--9-10---------------------|
-------------------------|----------------------9--|--------------10-----------|
-----------7-------------|----------7-------11-----|-------7----------------8--|
----0-1-0-----5--7/----0-|--0----7-------0---------|--------------------0-0----|


                                                                                
-------------------------|-------------------------|--9-10---------------------|
-------------------------|----------------------9--|--------------10-----------|
-----------7-------------|----------7-------11-----|-------7----------------8--|
----0-1-0-----5--7/----0-|--0----7-------0---------|--------------------0-0----|


                                                                                
-------------------------|-------------------------|--9-10---------------------|
-------------------------|----------------------9--|--------------10-----------|
-----------7-------------|----------7-------11-----|-------7----------------8--|
----0-1-0-----5--7/----0-|--0----7-------0---------|--------------------0-0----|


                                                                                
-------------------------|-------------------------|--9-10---------------------|
-------------------------|----------------------9--|--------------10-----------|
-----------7-------------|----------7-------11-----|-------7----------------8--|
----0-1-0-----5--7/----0-|--0----7-------0---------|--------------------0-0----|


                                                                             
-------------------------|-----------5------------|-------------------------|
-------------------------|--------7------------5--|-------------------------|
-----------7-------------|------------------5-----|-----5----7--8--5--------|
----0-1-0-----5--7/----0-|--5--0------------------|--0----------------7--5--|


                                                                              
--------------------------|-----------5------------|-------------------------|
-------------10--9--------|--------7------------5--|-------------------------|
----------7---------10----|------------------5-----|-----5----7--8--5--------|
----5--8------------------|--5--0------------------|--0----------------7--5--|


                                                                              
--------------------------|-----------5------------|-------------------------|
-------------10--9--------|--------7------------5--|-------------------------|
----------7---------10----|------------------5-----|-----5----7--8--5--------|
----5--8------------------|--5--0------------------|--0----------------7--5--|


                                                                              
--------------------------|-----------5------------|-------------------------|
-------------10--9--------|--------7------------5--|-------------------------|
----------7---------10----|------------------5-----|-----5----7--8--5--------|
----5--8------------------|--5--0------------------|--0----------------7--5--|


                                                                            
-------------------------|-------------------|----------|------------------|
-------------10----------|-------------------|----------|------------------|
----------7--------------|-------------------|----------|------------------|
----5--8-----------0--4--|--5----------------|----------|------------------|


                                                                            
------------------|------------------|------------------|------------------|
------------------|------------------|------------------|------------------|
------------------|------------------|------------------|------------------|
------------------|------------------|------------------|------------------|


                                                                              2x
------------------||-------------------|------------------|-------------------||
------------------||*------------------|------------------|------------------*||
------------------||*------------------|------------------|------------------*||
------------------||-------------------|------------------|-------------------||


                                                                            
------------------|------------------|------------------|------------------|
------------------|------------------|------------------|------------------|
------------------|------------------|------------------|------------------|
------------------|------------------|------------------|------------------|


                                                                            
------------------|------------------|------------------|------------------|
------------------|------------------|------------------|------------------|
------------------|------------------|------------------|------------------|
------------------|------------------|------------------|------------------|


                                                                               
---------------------------------------|--------------------------------------|
---------------------------------------|--------------------------------------|
-----7---7-----7---------7--7----7-----|--------------------------------------|
--0----0----0-----0--0--------0-----0--|--0---0--0-0--0--0--0---0--0-0--0--0--|


                                                                              
--------------------------------------|--------------------------------------|
--------------------------------------|--------------------------------------|
--------------------------------------|--------------------------------------|
--0---0--0-0--0--0--0---0--0-0--0--0--|--0---0--0-0--0--0--0---0--0-0--0--0--|


                                                                              
--------------------------------------|--------------------------------------|
--------------------------------------|--------------------------------------|
--------------------------------------|--------------------------------------|
--0---0--0-0--0--0--0---0--0-0--0--0--|--0---0--0-0--0--0--0---0--0-0--0--0--|


                                                                              
--------------------------------------|--------------------------------------|
--------------------------------------|--------------------------------------|
--------------------------------------|--------------------------------------|
--0---0--0-0--0--0--0---0--0-0--0--0--|--0---0--0-0--0--0--0---0--0-0--0--0--|


                                                                              
--------------------------------------|--------------------------------------|
--------------------------------------|--------------------------------------|
--------------------------------------|--------------------------------------|
--0---0--0-0--0--0--0---0--0-0--0--0--|--0---0--0-0--0--0--0---0--0-0--0--0--|


                                               
----------------------------------------------|
----------------------------------------------|
----------------------------------------------|
--0--0-0-0-0-0--0-0-0-0-0--0-0-0-0-0--0-0-0-0-|


                                             
--------------------------------------------|
--------------------------------------------|
-----7-7-7-7-------------------7-7----7-----|
--0----------0--0-0-0-0-0--0-0-----0-----0--|


                                               
----------------------------------------------|
----------------------------------------------|
----------------------------------------------|
--0--0-0-0-0-0--0-0-0-0-0--0-0-0-0-0--0-0-0-0-|


                                               
----------------------------------------------|
----------------------------------------------|
----------------------------------------------|
--0--0-0-0-0-0--0-0-0-0-0--0-0-0-0-0--0-0-0-0-|


                                               
----------------------------------------------|
----------------------------------------------|
----------------------------------------------|
--0--0-0-0-0-0--0-0-0-0-0--0-0-0-0-0--0-0-0-0-|


                                               
----------------------------------------------|
----------------------------------------------|
----------------------------------------------|
--0--0-0-0-0-0--0-0-0-0-0--0-0-0-0-0--0-0-0-0-|


                                               
----------------------------------------------|
----------------------------------------------|
----------------------------------------------|
--0--0-0-0-0-0--0-0-0-0-0--0-0-0-0-0--0-0-0-0-|


                                               
----------------------------------------------|
----------------------------------------------|
----------------------------------------------|
--0--0-0-0-0-0--0-0-0-0-0--0-0-0-0-0--0-0-0-0-|


                                               
----------------------------------------------|
----------------------------------------------|
----------------------------------------------|
--0--0-0-0-0-0--0-0-0-0-0--0-0-0-0-0--0-0-0-0-|


                                               
----------------------------------------------|
----------------------------------------------|
----------------------------------------------|
--0--0-0-0-0-0--0-0-0-0-0--0-0-0-0-0--0-0-0-0-|


                                               
----------------------------------------------|
----------------------------------------------|
----------------------------------------------|
--0--0-0-0-0-0--0-0-0-0-0--0-0-0-0-0--0-0-0-0-|


                                               
----------------------------------------------|
----------------------------------------------|
----------------------------------------------|
--0--0-0-0-0-0--0-0-0-0-0--0-0-0-0-0--0-0-0-0-|


                                               
----------------------------------------------|
----------------------------------------------|
----------------------------------------------|
--0--0-0-0-0-0--0-0-0-0-0--0-0-0-0-0--0-0-0-0-|


                                               
----------------------------------------------|
----------------------------------------------|
----------------------------------------------|
--0--0-0-0-0-0--0-0-0-0-0--0-0-0-0-0--0-0-0-0-|


                                               
----------------------------------------------|
----------------------------------------------|
----------------------------------------------|
--0--0-0-0-0-0--0-0-0-0-0--0-0-0-0-0--0-0-0-0-|


                                               
----------------------------------------------|
----------------------------------------------|
----------------------------------------------|
--0--0-0-0-0-0--0-0-0-0-0--0-0-0-0-0--0-0-0-0-|


                                               
----------------------------------------------|
----------------------------------------------|
----------------------------------------------|
--0--0-0-0-0-0--0-0-0-0-0--0-0-0-0-0--0-0-0-0-|


                                               
----------------------------------------------|
----------------------------------------------|
----------------------------------------------|
--0--0-0-0-0-0--0-0-0-0-0--0-0-0-0-0--0-0-0-0-|


                                               
----------------------------------------------|
----------------------------------------------|
----------------------------------------------|
--0--0-0-0-0-0--0-0-0-0-0--0-0-0-0-0--0-0-0-0-|


                                               
----------------------------------------------|
----------------------------------------------|
----------------------------------------------|
--0--0-0-0-0-0--0-0-0-0-0--0-0-0-0-0--0-0-0-0-|


                                               
----------------------------------------------|
----------------------------------------------|
----------------------------------------------|
--0--0-0-0-0-0--0-0-0-0-0--0-0-0-0-0--0-0-0-0-|


                                               
----------------------------------------------|
----------------------------------------------|
----------------------------------------------|
--0--0-0-0-0-0--0-0-0-0-0--0-0-0-0-0--0-0-0-0-|


                                               
----------------------------------------------|
----------------------------------------------|
----------------------------------------------|
--0--0-0-0-0-0--0-0-0-0-0--0-0-0-0-0--0-0-0-0-|


                                               
----------------------------------------------|
----------------------------------------------|
----------------------------------------------|
--0--0-0-0-0-0--0-0-0-0-0--0-0-0-0-0--0-0-0-0-|


                                               
----------------------------------------------|
----------------------------------------------|
----------------------------------------------|
--0--0-0-0-0-0--0-0-0-0-0--0-0-0-0-0--0-0-0-0-|


                                               
----------------------------------------------|
----------------------------------------------|
----------------------------------------------|
--0--0-0-0-0-0--0-0-0-0-0--0-0-0-0-0--0-0-0-0-|


                                               
----------------------------------------------|
----------------------------------------------|
----------------------------------------------|
--0--0-0-0-0-0--0-0-0-0-0--0-0-0-0-0--0-0-0-0-|


                                               
----------------------------------------------|
----------------------------------------------|
----------------------------------------------|
--0--0-0-0-0-0--0-0-0-0-0--0-0-0-0-0--0-0-0-0-|


                                               
----------------------------------------------|
----------------------------------------------|
----------------------------------------------|
--0--0-0-0-0-0--0-0-0-0-0--0-0-0-0-0--0-0-0-0-|


                                               
----------------------------------------------|
----------------------------------------------|
----------------------------------------------|
--0--0-0-0-0-0--0-0-0-0-0--0-0-0-0-0--0-0-0-0-|


                                                                   
----------------------------------------------|-------------------|
----------------------------------------------|-------------------|
----------------------------------------------|-------------------|
--0--0-0-0-0-0--0-0-0-0-0--0-0-0-0-0--0-0-0-0-|--0----------------|


                                                  
------------------|----|----|----|----|----|----||
------------------|----|----|----|----|----|----||
------------------|----|----|----|----|----|----||
------------------|----|----|----|----|----|----||





Comments


Popular Opeth tabs & chords
Drapery Falls Bass Tabs
White Cluster Bass Tabs
Demon (Solo) Tabs
Dirge For November Tabs
Epilogue Tabs
Ghost Of Perdition Tabs
I Feel The Dark Tabs
Nectar Tabs
Patterns In The Ivy Ii 1 Tabs
Wreath Tabs


Song lyrics



↑ Back to top | Tablatures and chords are parodies/interpretations of the original songs. You may use it for private study, scholarship, research or language learning purposes only
© 2014 AZChords.com Contact us | Privacy policy | DMCA | Add/correct tabs | Request tabs | Top 50 tabs