>
 >
Bleak

Bleak Bass Tabs

Opeth - Bleak chords, tabs, tablatures, lyrics

Guitar lessons | Add/correct | Request | Top 50 tabs Artists:  A B C D E F G H I J K L M N O P Q R S T U V W X Y Z 0-9

Bleak Bass Tabs – Opeth

CD, Sheet music, Poster

Do you like Bleak? Share with your friends now
Bass TabsTabs
Riff 1 (0:00)
G[------------------]
D[------------------]
A[------------------]
E[--0~--------0~----]

Riff 2 (0:20)
G[-----------------------|---------------------------]
D[-----------------------|--7-8-7-5-7-5--------------]
A[------7p5---------5h7--|--------------8-7-8-7-5----]
E[-0~-------7p5-5h7------|------------------------8--]

Riff 3 (0:40)
G[---------------------------------------------]
D[-----------------------9\--------------------]
A[---------7\--------7h8-------------------7\--]
E[--0~-5h7----0~-5h7--------55-77-3-0~-5h7-----]

Fill 1 (1:17)
G[---------------------------]
D[---------------------------]
A[---------5h7-8-7-5---------]
E[--0~-5h7-----------8-7-55--]

Riff 4 (1:20)
G[--------------------------------------]
D[------------------------4h6-----------]
A[----------------------4---------------]
E[--4-2-0-4-2-0-4-2-0-2-------4-2-44-2--]

G[--------------------------------------]
D[------------------------7h9-----------]
A[----------------------7-----7-5-7-55--]
E[--7-5-4-7-5-4-7-5-4-5-----------------]

G[--------------------------------------]
D[------------------------4h6-----------]
A[----------------------4---------------]
E[--4-2-0-4-2-0-4-2-0-2-------4-2-44-2--]

G[---------------------------------------------]
D[---------------------------------------------]
A[------------------------------7-5------------]
E[--7-5-4-7-5-4-7-5-4-5-0-5h7-5-----8-7-5-3-2--]

Riff 2 (1:40)
Riff 3 (2:01)

Fill 2 (2:47)
G[----------------]
D[----------------]
A[--8-7-5---------]
E[--------8-7-55--]

Riff 4 (2:48)

Fill 3 (3:07)
G[-------------------------------------------------]
D[-------------------------------------------------]
A[-------------------------------------------------]
E[--0-3-5-3-0-8-7-5-7-0-8-7-5-7-0-8-7-5-2h3p2-3-5--]

Riff 5 (3:13)
G[----------------------------]
D[----------------------------]
A[---------------------7-5-3--]
E[--7-00-7-77-777-3-33--------]

Riff 6 (3:42)
G[-------------------------------------]
D[-------------------------------------]
A[--3-33-33-33-32-22-22-20-00-----7p5--]
E[----------------------------3h5------]

Riff 5 (4:03)

Riff 7 (4:23)
G[---------------------------------]
D[--------------4~-------4~--------]
A[--2~----2~-------2--------2------]
E[-----3~----3~------5-3------5-3--]

Riff 8 (5:02)
G[---------------------------------------------]
D[--4--------------------------------------8~--]
A[--------5-7-8-7------------------------8-----]
E[----5-5---------5~-5-7-5-3-0--5~-5-7-8-------]

Riff 9 (5:19)
G[----------------------]
D[----------------------]
A[----------3~-2~-------]
E[--0~-2-0~-------3p2~--]

Riff 10 (5:59)
G[---------------------------------]
D[---------------------------------]
A[-------2222-2222-3333-2222-2222--]
E[--0000---------------------------]

Riff 11 (6:38)
G[-----------------------------------------------------------------]
D[-----------------------------------------------------------------]
A[-------------------------------------------------8-7-5-----------]
E[-0-5h7-7-8-5-0-5h7-7-8-5-0-3h5-5-3-3p2-00-2-00-2-------8-7-5-7-8-]

Riff 5 (7:17)
Riff 6 (7:36)
Riff 5 (7:56)

Fill 4 (8:15)
G|----------------]
D|----------------]
A|----------------]
E|--7~-5~-3~-22~--]

Riff 12 (8:21)
G[-------------------------------------]
D[-------------------------------------]
A[-------------------------3/7-999999--]
E[--33333333-2222222-3-3-3-------------]





Comments


Popular Opeth tabs & chords
Deliverance 3 Bass Tabs
The Amen Corner Bass Tabs
The Funeral Portrait 2 Bass Tabs
To Rid The Disease Chords
A Fair Judgement Tabs
Burden 1 Tabs
Epilogue Tabs
Requiem Tabs
Slither Tabs
The Leper Affinity Tabs


Song lyrics



↑ Back to top | Tablatures and chords are parodies/interpretations of the original songs. You may use it for private study, scholarship, research or language learning purposes only
© 2014 AZChords.com Contact us | Privacy policy | DMCA | Add/correct tabs | Request tabs | Top 50 tabs