» » »

Here We Go Again Bass tabs (ver.1)

Artists:  A B C D E F G H I J K L M N O P Q R S T U V W X Y Z # 

Here We Go Again Bass tabs (ver.1)

Operation Ivy
Rating:
5/5 (2 votes)

Hard to play? Try these video lessons and learn fast.
                I made this tab because the other one on this site doesn't have one note right
and its an awesome song

BAND:OPERATION IVY

Listen to the song to find out the order of the parts its pretty simple
This is my first tab

INTRO:

G:----------------------------|
D:----------------------------|
A:---2-------0---2------------|
E:-------2--------------------|

VERSE:

G:--------------------------------2222------------|
D:----444444------------4444444444----------------|
A:--22-----------0000-22--------------------------|
E:-----------2222---------------------------------|

CHORUS:

G:-----------------------------------------------------|
D:-4----4----------4----4-67---------------------------|
A:---47--------------47------67------------------------|
E:--------77775----------------------------------------|

Chorus change at end:
Not too sure about this part

G:-----------------------------------------------|
D:-----------------------------------------------|
A:-----------------------------------------------|
E:--2-2-0-2-5555-0-------------------------------|

after this goes a few time it goes back to regular chorus
            
Hard to play? Try these video lessons and learn fast. | Correct




comments powered by Disqus
↑ Back to top | Tablatures and chords are parodies/interpretations of the original songs. You may use it for private study, scholarship, research or language learning purposes only