» » »

Artificial Life Tabs (ver.1)

Artists:  A B C D E F G H I J K L M N O P Q R S T U V W X Y Z # 

Artificial Life Tabs (ver.1)

Operation Ivy
Rating:
0/5 (0 votes)

Hard to play? Try these video lessons and learn fast.
                the song is all barre chords except for that one part

e---5------------3----------5--------------------------------
b---5------------3----------7--------------------------------
g---6------------4----------7--------------------------------
D---7------------5----------7--------------------------------
a---7------------5----------5--------------------------------
E---5------------3------------------------------------------



e---------------------------------------------------------
b---------------------------------------------------------
g------------------7---------------------------------------
D--7-7-7p5-5-5-5h7---7p5------------------------------------                         a------------------------7---------------------------------
E---------------------------------------------------------
            
Hard to play? Try these video lessons and learn fast. | Correct




comments powered by Disqus
↑ Back to top | Tablatures and chords are parodies/interpretations of the original songs. You may use it for private study, scholarship, research or language learning purposes only