» » »

Operation Ivy, Here We Go Again Tabs (ver.1)

Artists:  A B C D E F G H I J K L M N O P Q R S T U V W X Y Z # 

Here We Go Again Tabs (ver.1)

Operation Ivy Tabs
 Rating:
4/5 (4 votes)
Here We Go Again lessons Tabs too difficult? Try these video lessons and learn fast
1
                Bassist: Matt Freeman 

Intro
G|--------------|
D|--------------|
A|-2*-------2*--|
E|----2*-5*-----|

Verse:
G|-----------------------------------------------------------------|
D|---4-4-4-4-4-4-4-------------------4-4-4-4-4-4-4-4-4-4-4-7-7-8-9-|
A|-2-----------------------0-0-0-1-2-------------------------------| X2
E|-----------------2-2-2-2-----------------------------------------|

Chorus:
G|-----------------------------------|
D|----2-4--------------2-4-6-7-7-----|
A|--------------7---------------6-7--| X2
E|-2-2----0-5-5----2-2---------------|

Repeat Verse and Chorus

G|----------------------------------|
D|----------------------------------|
A|-2-2-2-2-2-2-2-2------------------|   X2
E|-----------------2-2-2-2-5-5-55---|

G|--------------------------------------------------------------------|
D|---4-4-4-4-4-4-4-------------------4-4-4-4-4-4-4--------------------|
A|-2-----------------------0-0-0-1-2-----------------------0-0-0-1-2--|
E|-----------------2-2-2-2-------------------------2-2-2-2------------|

G|------------------------------------------------------------------|
D|-------------------------5-5---------------------7-7-5-5-4-4------|
A|---------------------7-7-----7-7---------2-2-3-4-------------7-7--|
E|-2-2-2-2-2-2-2-2-5-5-------------2-2-5-5--------------------------|

G|--------------------------------------------------------------------|
D|---4-4-4-4-4-4-4-------------------4-4-4-4-4-4-4--------------------|
A|-2-----------------------0-0-0-1-2-----------------------0-0-0-1-2--|
E|-----------------2-2-2-2-------------------------2-2-2-2------------|

Repeat Chorus X2

Breakdown:
G|--------------------|
D|--------------------|
A|--------------------| X3
E|-2-2-0-2-2-5-5-5-0--|

Repeat Chorus X4
            
Submit corrections

comments powered by Disqus
↑ Back to top | Operation Ivy Tabs for Here We Go Again. Lyrics for acoustic guitar and electric guitar. 1 Tablatures and chords are parodies/interpretations of the original songs. You may use it for private study, scholarship, research or language learning purposes only