» » »

Operation Ivy, Here We Go Again Tabs (ver.2)

Artists:  A B C D E F G H I J K L M N O P Q R S T U V W X Y Z # 

Here We Go Again Tabs (ver.2)

Operation Ivy Tabs
 Rating:
4.2/5 (5 votes)
Here We Go Again lessons Tabs too difficult? Try these video lessons and learn fast
                Intro with lint singing:
e|-------------------------------------------------------------------|
B|-------------------------------------------------------------------|
G|88888888888888-333333333333333-666666666666666-888888888888888-----|
D|99999999999999-444444444444444-777777777777777-999999999999999-----|
A|99999999999999-444444444444444-777777777777777-999999999999999-----|
E|-------------------------------------------------------------------|

Verses:
e|X-7-X-7-X-7-X-7-X-2-X-2-X-5-X-5------------------------------------|
B|X-7-X-7-X-7-X-7-X-2-X-2-X-5-X-5------------------------------------|
G|X-8-X-8-X-8-X-8-X-3-X-3-X-6-X-6------------------------------------|
D|X-9-X-9-X-9-X-9-X-4-X-4-X-7-X-7--- PLAY 4 TIMES -------------------|
A|X-9-X-9-X-9-X-9-X-4-X-4-X-7-X-7------------------------------------|
E|X-7-X-7-X-7-X-7-X-2-X-2-X-5-X-5------------------------------------|

CHORUS:
e|X-X-2--X-X-2--X-X-5--X-X-5-----------------------------------------|
B|X-X-2--X-X-2--X-X-5--X-X-5-----------------------------------------|
G|X-X-3--X-X-3--X-X-6--X-X-6-----------------------------------------|
D|X-X-4--X-X-4--X-X-7--X-X-7-- PLAY 4 TIMES -------------------------|
A|X-X-4--X-X-4--X-X-7--X-X-7-----------------------------------------|
E|X-X-2--X-X-2--X-X-5--X-X-5-----------------------------------------|

PART WHEN THEY GO INSANE :
e|----------------X-2-X-2-X-2-X-2-X-5-X-5-X-5-X-5------------2-------|
B|----------------X-2-X-2-X-2-X-2-X-5-X-5-X-5-X-5------------2-------|
G|PLAY THE VERSE -X-3-X-3-X-3-X-3-X-6-X-6-X-6-X-6-THEN PLAY -3-------|
D|PART 4 TIMES ---X-4-X-4-X-4-X-4-X-7-X-7-X-7-X-7-VERSE PART-4-------|
A|THEN PLAY 4X-> -X-4-X-4-X-4-X-4-X-7-X-7-X-7-X-7-TWICE THEN-4-------|
E|----------------X-2-X-2-X-2-X-2-X-5-X-5-X-5-X-5------------2-------|

END PART
e|----------------2--------------------------------------------------|
B|----------------2--------------------------------------------------|
G|PLAY THE CHORUS 3--------------------------------------------------|
D|PART A LOT THEN 4--------------------------------------------------|
A|END WITH: ------4--------------------------------------------------|
E|----------------2--------------------------------------------------|
            
Submit corrections

comments powered by Disqus
↑ Back to top | Operation Ivy Tabs for Here We Go Again. Lyrics for acoustic guitar and electric guitar. Tablatures and chords are parodies/interpretations of the original songs. You may use it for private study, scholarship, research or language learning purposes only