>
 >
Bankshot 2

Bankshot 2 Guitar Tabs

Operation Ivy - Bankshot 2 chords, tabs, tablatures, lyrics

Guitar lessons | Add/correct | Request | Top 50 tabs Artists:  A B C D E F G H I J K L M N O P Q R S T U V W X Y Z 0-9

Bankshot 2 Guitar Tabs – Operation Ivy

CD, Sheet music, Poster

Do you like Bankshot 2? Share with your friends now
Bass TabsBass Tabs v2Bass Tabs v3TabsTabs v2Tabs v3
Operation Ivy
Bankshot

Intro
Riff A
Riff B
Riff A
Riff B
Bridge
Riff A (both guitars: skip last bar and go to outro)
Outro

Lead Guitar

Intro          x3
  G
|----------------|
|----------------|
|----------------|
|--5--3--2-------|
|-------------5--|
|----------------|
                                          

 Riff A
  C                 G               F                 C
|----------------|----------------|----------------|----------------|
|----------------|----------------|----------------|----------------|
|----------------|----------------|----------------|----------------|
|----------------|----------------|----s3---3-2----|----------------|
|--3---------s5--|----------------|--------------5-|--3-------------|
|----------------|--3-------------|----------------|----------------|
                                               
                                                       bank    shot!
  C                G                F                C
|----------------|----------------|----------------|----------------|
|----------------|----------------|----------------|----------------|
|----------------|----------------|----------------|----------------|
|----------------|----------------|----s3---3-2----|----------------|
|--3--------s5---|----------------|--------------5-|--3---3---3---3-|
|----------------|--3-------------|----------------|----------------|



 Riff B
       hup hup         hup  hup     hup hup hup hup  hup hup hup hup
       hup rollin      hup  rollin  hup hup hup hup  hup hup hup hup
  G                F                 G               F                
|----------------|----------------|----------------|----------------|
|----------------|----------------|----------------|----------------|
|----------------|----------------|----------------|--3---2---------|
|--5-2---2-5-2---|---------3---3--|--5-2---2-5-2---|----------5---2-|
|------5-------5-|--3----3--------|------5-------5-|----------------|
|----------------|----------------|----------------|----------------|

    rollin rollin    rollin rollin  hup hup hup hup  hup hup hup hup
  hup hup hup hup hup hup hup hup
  G                F                 G               F
|----------------|----------------|----------------|----------------|
|----------------|----------------|----------------|----------------|
|----------------|----------------|----------------|----------------|
|--5-2---2-5-2---|---------3---3--|--5-2---2-5-2---|------2-3--5--2-|
|------5-------5-|--3----3--------|------5-------5-|--3-5-----------|
|----------------|----------------|----------------|----------------|

Bridge
    C               C                 G              G       F
    rake           rake     ^   v 
|---8------------|----------8---8-|---3------------|----------------|
|---8------------|----------8---8-|---3------------|---------10--10-|
|---9------------|-------9--9---9-|---4------------|---------10--10-|
|--10------------|--10--10--------|---5------------|---------10--10-|
|--10------------|--10--10--------|---5------------|----------8---8-|
|---8------------|---8------------|---3------------|----------------|

    C              C                 G                G      F
|----------------|----------------|----------------|----------------|
|--10------------|----------------|-----12-----12--|-----12--10--10-|
|--10-b8-b7------|-b10b10b10-8----|--12-12-12--12--|--12-12--10--10-|
|------------10--|-------------10-|--12-12-12--12--|--12-12--10--10-|
|----------------|----------------|--10----10------|--10------8---8-|
|----------------|----------------|----------------|----------------|

  C                C                 G                G      F
|----------------|----------------|-----7----------|----------------|
|----------------|----------------|---------8------|---------10--10-|
|-10--8-----8--8-|-10--8-----8--88|-------------7--|---------10--10-|
|-------10-------|-------10-------|---9------------|---------10--10-|
|----------------|----------------|----------------|----------8---8-|
|----------------|----------------|----------------|----------------|

  C                C                G                G       F
|8-11-8----------|----------------|-------------7--|----------------|
|-------11-8-----|----------------|----------------|---------10--10-|
|------------10-8|-b10b10b10-8----|---7-----8------|---------10--10-|
|----------------|-------------10-|---9------------|---------10--10-|
|----------------|----------------|----------------|----------8---8-|
|----------------|----------------|----------------|----------------|

Outro
               x3
   F
|----------------|
|----------------|
|-s3--3--3--2----|
|-------------5--|
|----------------|
|----------------|
  
  Bank shot!
  C
|----------------|
|----------------|
|----------------|
|----------------|
|--3-------------|
|----------------|


Rhythm Guitar

Intro
  1 + 2 + 3 + 4 +    1 + 2 + 3 + 4 +    1 + 2 + 3 + 4 +
  G                  G                  G
  Q                  W                  Q
|-3----------------|-3----------------|-3----------------|
|-3----------------|-3----------------|-3----------------|
|-4----------------|-4----------------|-4----------------|
|-5----------------|-5----------------|-5----------------|
|-5----------------|-5----------------|-5----------------|
|-3----------------|-3----------------|-3----------------|

 Verse A
  C                  G                  F                  C
  1 + 2 + 3 + 4 +    1 + 2 + 3 + 4 +    1 + 2 + 3 + 4 +    1 + 2 + 3 + 4 +
|---3---3---3---3--|---3---3---3---3--|---1---1---1---1--|---3---3---3---3--|
|---5---5---5---5--|---3---3---3---3--|---1---1---1---1--|---5---5---5---5--|
|---5---5---5---5--|---4---4---4---4--|---2---2---2---2--|---5---5---5---5--|
|---5---5---5---5--|---5---5---5---5--|---3---3---3---3--|---5---5---5---5--|
|------------------|------------------|------------------|------------------|
|------------------|------------------|------------------|------------------|

                                                               Bank shot!
  C                  G                  F                  C
  1 + 2 + 3 + 4 +    1 + 2 + 3 + 4 +    1 + 2 + 3 + 4 +    1 + 2 + 3 + 4 +
|---3---3---3---3--|---3---3---3---3--|---1---1---1---1--|-3---3---3---3----|
|---5---5---5---5--|---3---3---3---3--|---1---1---1---1--|-5---5---5---5----|
|---5---5---5---5--|---4---4---4---4--|---2---2---2---2--|-5---5---5---5----|
|---5---5---5---5--|---5---5---5---5--|---3---3---3---3--|-5---5---5---5----|
|------------------|------------------|------------------|-3---3---3---3----|
|------------------|------------------|------------------|------------------|


Verse B
                                                                          x2
  G                  F                  G                  F
  1 + 2 + 3 + 4 +    1 + 2 + 3 + 4 +    1 + 2 + 3 + 4 +    1 + 2 + 3 + 4 +
|---3-------3------|---1-------1------|---3-------3------|---1-------1------|
|---3-------3------|---1-------1------|---3-------3------|---1-------1------|
|---4-------4------|---2-------2------|---4-------4------|---2-------2------|
|---5-------5------|---3-------3------|---5-------5------|---3-------3------|
|------------------|------------------|------------------|------------------|
|------------------|------------------|------------------|------------------|

Bridge
                                                                         x4
  C                  C                  G                  G       F
  1 + 2 + 3 + 4 +    1 + 2 + 3 + 4 +    1 + 2 + 3 + 4 +    1 + 2 + 3 + 4 +
|---3---3---3---3--|---3---3---3---3--|---3---3---3---3--|---3---3-1---1----|
|---5---5---5---5--|---5---5---5---5--|---3---3---3---3--|---3---3-1---1----|
|---5---5---5---5--|---5---5---5---5--|---4---4---4---4--|---4---4-2---2----|
|---5---5---5---5--|---5---5---5---5--|---5---5---5---5--|---5---5-3---3----|
|------------------|------------------|------------------|---------3---3----|
|------------------|------------------|------------------|---------1---1----|

Outro
  F               x3  C
  1 + 2 + 3 + 4 +     1 + 2 + 3 + 4 +                    
|-1---1-------------|-1----------------|
|-1---1-------------|-3----------------|
|-2---2-------------|-3----------------|
|-3---3-------------|-3----------------|
|-3---3-------------|-1----------------|
|-1---1-------------|------------------|





Comments


Popular Operation Ivy tabs & chords
Hedgecore Bass Tabs
Sarcastic Bass Tabs
Take Warning Bass Tabs
Jaded Chords
Unity Chords
Caution 1 Tabs
Junkie's Runnin' Dry Tabs
Unity Easy Tabs
Vulnerability Intro Tabs
The Crowd Ukulele


Song lyrics



↑ Back to top | Tablatures and chords are parodies/interpretations of the original songs. You may use it for private study, scholarship, research or language learning purposes only
© 2014 AZChords.com Contact us | Privacy policy | DMCA | Add/correct tabs | Request tabs | Top 50 tabs