» » »

Operation Ivy, Bankshot Bass tabs (ver.2)

Artists:  A B C D E F G H I J K L M N O P Q R S T U V W X Y Z # 

Bankshot Bass tabs (ver.2)

Operation Ivy Tabs
 Rating:
4/5 (4 votes)
Bankshot lessons Tabs too difficult? Try these video lessons and learn fast
                G--------------------------------------------------------------|
D-----------------------3-3-320-------------3-3-320------------|
A-------------3--5--------------3---3--5---------------3-3-3-3-|
E-3--3````3--------3--------------------3----------------------|

G-------------------------------------|
D--------------3-33-------------3-33--|
A-----------33---------------33-------|
E-3-33-333----------33333333----------|

G-------------------------------------|
D-------------3-33-------------332200-|
A----------33---------------33--------|
E-3-33-333---------33333333-----------|

G------------------02-22-----------------------------|
D--------3-3-320--------532---------3-3-320----------|
A-3--5-----------3-----------3--5-----------3-3-3-3--|
E------3--------------------------3------------------|

G-------------------------------------|
D--------------3-33-------------3-33--|
A-----------33---------------33-------|
E-3-33-333----------33333333----------|

G-------------------------------------|
D-------------3-33-------------332200-|
A----------33---------------33--------|
E-3-33-333---------33333333-----------|

G----------------------------------------------------------------|
D----------33------------------------------33--------------------|
A-3-33-333----3-33----------------3-33-333----3-33---------------|
E------------------3-33-333-1-1--------------------3-33-333-1-1--|

G----------------------------------------------------------------|
D----------33------------------------------33--------------------|
A-3-33-333----3-33----------------3-33-333----3-33---------------|
E------------------3-33-333-1-1--------------------3-33-333-1-1--|

G------------------02-22---------------------------|
D--------3-3-320--------532---------3-3-320--------|
A-3--5-----------3-----------3--5-----------3````--|
E------3--------------------------3----------------|

G-----------------------------------|
D-3-3-320--3-3-320--3-3-320---------|
A----------------------------3````--|
E-----------------------------------|
            
Submit corrections

comments powered by Disqus
↑ Back to top | Operation Ivy Bass for Bankshot. Lyrics for acoustic guitar and electric guitar. Tablatures and chords are parodies/interpretations of the original songs. You may use it for private study, scholarship, research or language learning purposes only