>
 >
Bankshot

Bankshot Bass Tabs

Operation Ivy - Bankshot chords, tabs, tablatures, lyrics

Guitar lessons | Add/correct | Request | Top 50 tabs Artists:  A B C D E F G H I J K L M N O P Q R S T U V W X Y Z 0-9

Bankshot Bass Tabs – Operation Ivy

CD, Sheet music, Poster

Do you like Bankshot? Share with your friends now
Bass TabsBass Tabs v2Bass Tabs v3TabsTabs v2Tabs v3


Hello,

I fixed some mistakes and added the bassline due to requests.
THank you.
Bankshot by Operation Ivy! 

This is the tab to the song.  The chords for
it are all open C, G, and F chords (well, the F
isn't open I guess:)
Feel free to send me corrections!

**********************************
10/19/95 (3:07 AM)  8D
Due to a request, I added a bassline to it......
Hope it's OK.
Again....feel free to e-mail me comments.
I am going to be here for at least 6 more years...
Pancreas
**********************************

xpy = x pull off to y
xhy = x hammer on y
xby = x bent to y
xry = play prebent to tone of x and fret y
~=hold note (sort of, listen to the record.  You'll know what
             to do)

Guitar
e------------------------------------------------------
B------------------------------------------------------
G------------------------------------------------------
D--5--3--2----------5--3--2-------5--3--2--------------
A-------------5---------------5--------------5--3------
E------------------------------------------------------
                                          
Bass
G------------------------------------------------------
D------------------------------------------------------
A-----------------------------------------------3------
E--3----------------3~~~~~~~~~~---3--------------------

++++++++++++++++++++++++++++++++++++++++++++++++++++++++

Guitar
e------------------------------------------------------
B------------------------------------------------------
G------------------------------------------------------
D----------3--3--2---------------------3--3--2---------
A--5-----------------5--3--3--5------------------5--3--
E------3---------------------------3-------------------

Bass
G------------------------------------------------------
D--0-------3--3--2---0--------0--------3--3--2---0-----
A-----------------------3--3------------------------3--
E------3---------------------------3-------------------

++++++++++++++++++++++++++++++++++++++++++++++++++++++++

Guitar
e----------------------------------------------
B----------------------------------------------
G----------------------------------------------
D---5--2------2---5---2------------3-----------
A----------5--------------5---3----------------
E----------------------------------------------

Bass
G------------------------------------------------------
D----------------------------------3---2p0-------------
A-----------------------------3------------------------
E---3--------------------------------------------------

++++++++++++++++++++++++++++++++++++++++++++++++++++++++

Guitar
e-----------------------------------------------
B-----------------------------------------------
G-----------------------------3--2--------------
D---5--2------2---5---2---------------3--2------
A----------5--------------5---------------------
E-----------------------------------------------

Bass
G------------------------------------------------------
D-------------------------------------3--2p0-----------
A-----------------------------3------------------------
E---3--------------------------------------------------

+++++++++++++++++++++++++++++++++++++++++++++++++++++++++

Guitar
e----------------------------------------------
B----------------------------------------------
G----------------------------------------------
D---5--2------2---5---2------------3-----------
A----------5--------------5---3----------------
E----------------------------------------------

Bass
G------------------------------------------------------
D----------------------------------3--2p0--------------
A-----------------------------3------------------------
E---3--------------------------------------------------

+++++++++++++++++++++++++++++++++++++++++++++++++++++++++

Guitar
e------------------------------------------------
B------------------------------------------------
G------------------------------------------------
D---5--2------2---5---2-----------3--5-----------
A----------5--------------5---3----------5----3--
E------------------------------------------------
                                          
Bass
G------------------------------------------------------
D------------------------------------3---2p0-----------
A-----------------------------3---------------3--------
E---3--------------------------------------------------

+++++++++++++++++++++++++++++++++++++++++++++++++++++++++

Guitar
e----------------------------------------------------------------
B----------------------------------------------------------------
G----------------------------------------------------------------
D----------3--3--2-------------------------------3--3--2---------
A--5-----------------5--3------------3--5------------------5--3--
E------3-------------------------------------3-------------------

Bass
G-------------------------222-2-0--------------------------------
D--0-------3--3--2---0------------2-----0--------3--3--2--0------
A-----------------------3------------3-----------------------3---
E------3-------------------------------------3-------------------

++++++++++++++++++++++++++++++++++++++++++++++++++++++++++

Guitar
e----------------------------------------------
B----------------------------------------------
G----------------------------------------------
D---5--2------2---5---2------------3-----------
A----------5--------------5---3----------------
E----------------------------------------------

Bass
G------------------------------------------------------
D----------------------------------3---2p0-------------
A-----------------------------3------------------------
E---3--------------------------------------------------

++++++++++++++++++++++++++++++++++++++++++++++++++++++++++

Guitar
e----------------------------------------------
B-----------------------------------------------
G-----------------------------3--2--------------
D---5--2------2---5---2---------------3--2------
A----------5--------------5---------------------
E-----------------------------------------------

Bass
G------------------------------------------------------
D-------------------------------------3--2p0-----------
A-----------------------------3------------------------
E---3--------------------------------------------------

++++++++++++++++++++++++++++++++++++++++++++++++++++++++++

Guitar
e----------------------------------------------
B----------------------------------------------
G----------------------------------------------
D---5--2------2---5---2------------3-----------
A----------5--------------5---3----------------
E----------------------------------------------

Bass
G------------------------------------------------------
D----------------------------------3--2p0--------------
A-----------------------------3------------------------
E---3--------------------------------------------------

++++++++++++++++++++++++++++++++++++++++++++++++++++++++++

Guitar
e---------------------------------------------
B---------------------------------------------
G---------------------------------------4-----
D---5--2------2---5---2-----------3--5--------
A----------5--------------5---3---------------
E---------------------------------------------

Bass
G------------------------------------------------------
D---------------------------------3---2p0--------------
A-----------------------------3------------------------
E---3--------------------------------------------------

++++++++++++++++++++++++++++++++++++++++++++++++++++++++++

Guitar
e---8--------------------8--------3~~~-------1--1------
B---8---12---------------8--------3~~~-------1--1------
G---9--------12----------9--------4~~~-------2--2------
D--10-------------12----10--------5~~~-------3--3------
A--10-------------------10--------5~~~-------3--3------
E---8--------------------8--------3~~~-------1--1------

Bass
G------------------------------------------------------
D------3----2-----0--------------------------3--3------
A---3--------------------3-----------------------------
E---------------------------------3--------------------

++++++++++++++++++++++++++++++++++++++++++++++++++++++++++

Guitar
e---8------------------------------------7~~~-------1--1----
B------8-----------6--6--6---------------8~~~-------1--1----
G---------7b9---5-----------8---5--------7~~~-------2--2----
D-----------------------------------5----5~~~-------3--3----
A---------------------------------------------------3--3----
E---------------------------------------------------1--1----

Bass
G-------------------------------------------------------------
D------------------3--2--0--------------------------3--3------
A---3---------------------------3-----------------------------
E----------------------------------------3--------------------

++++++++++++++++++++++++++++++++++++++++++++++++++++++++++

Guitar
e--------------------------------------7~~~~~~----7---1--1--
B---6---------------6--------------------8~~~~----8---1--1--
G--------8--5--8--------8--5--8--8---------7~~----7---2--2--
D------------------------------------9~~~~~~~~----9---3--3--
A-----------------------------------------------------3--3--
E-----------------------------------------------------1--1--


Bass
G-----------------------------------------------------------
D-------------------3---2--0--------------------------3--3--
A---3-------------------------3-----------------------------
E------------------------------------3----------------------

++++++++++++++++++++++++++++++++++++++++++++++++++++++++++

Guitar
e--8--11--8---------------------
B--------------11--8------------
G----------------------10---8---
D-------------------------------
A-------------------------------
E-------------------------------


Bass
G--------------------------------
D--------------------------------
A---3----------------------------
E--------------------------------

++++++++++++++++++++++++++++++++++++++++++++++++++++++++++

Guitar
e------------------------------------7~~-----1--1--
B------------------------------------8~~-----1--1--
G---11r10--11r10--10--8--------------7~~-----2--2--
D--------------------------10------9~~~~-----3--3--
A--------------------------------------------3--3--
E--------------------------------------------1--1--
                                                   
Bass
G------------------------------------------------------
D---3-------2--------0-----------------------3--3------
A--------------------------3---------------------------
E----------------------------------3-------------------

++++++++++++++++++++++++++++++++++++++++++++++++++++++++++

Guitar
e----------------------------------------------------------------
B----------------------------------------------------------------
G----------------------------------------------------------------
D-----------3--3--2-------------------------------3--3--2--------
A--3--5--------------5--3-------------3--5-----------------5--3--
E--------3-------------------------------------3-----------------

Bass
G-------------------------222-2-0--------------------------------
D-----0-----3--3--2--0-------------2-----0--------3--3--2--0-----
A--3--------------------3-------------3-----------------------3--
E--------3-------------------------------------3-----------------

++++++++++++++++++++++++++++++++++++++++++++++++++++++++++

Guitar
e--------------------------------------------------------
B--------------------------------------------------------
G--------------------------------------------------------
D--3--3--3--2-----3--3--3--2---------3--3--3--2----------
A--------------5---------------5-----------------5--3~~--
E--------------------------------------------------------

Bass
G--------------------------------------------------------
D--3--3--3--2--0--3--3--3--2---0-----3--3--3--2--0-------
A---------------------------------------------------3~~--
E--------------------------------------------------------





Comments


Popular Operation Ivy tabs & chords
Artificial Life Bass Tabs
Hedgecore Bass Tabs
Left Behind 1 Bass Tabs
Officer 4 Bass Tabs
Bad Town 2 Tabs
Caution Tabs
Healthy Body Tabs
Here We Go Again 1 Tabs
The Crowd Tabs
Hedgecore Ukulele


Song lyrics



↑ Back to top | Tablatures and chords are parodies/interpretations of the original songs. You may use it for private study, scholarship, research or language learning purposes only
© 2014 AZChords.com Contact us | Privacy policy | DMCA | Add/correct tabs | Request tabs | Top 50 tabs