» » »

Mercy Tabs (ver.2)

Artists:  A B C D E F G H I J K L M N O P Q R S T U V W X Y Z # 

Mercy Tabs (ver.2)

Onerepublic
Rating:
0/5 (0 votes)

Hard to play? Try these video lessons and learn fast.
                (Intro)
-------------------------------------------------------------------------------
                             MERCY - One Republic
-------------------------------------------------------------------------------

Tuning:EBGDAE

Guitar 1:
e|---------------------------------------------------------------------------|
B|-----7---7---7---5---5---4---4---7---7---7---5---5---4---4-----------------|
G|---4---4---4---4---4---4---4---4---4---4---4---4---4---4---4---------------|
D|---------------------------------------------------------------------------|
A|---------------------------------------------------------------------------|
E|---------------------------------------------------------------------------|

guitar 2:
e|---------------------------------------------------------------------------|
B|---0---0---0---0-------------------0---0---0---0---5---5---4---4-----------|
G|-------------------3---3---3---3-----1---1---1---1---4---4---4---4---------|
D|-----4---4---4---4---4---4---4---4-----------------------------------------|
A|---------------------------------------------------------------------------|
E|---------------------------------------------------------------------------|
            
Hard to play? Try these video lessons and learn fast. | Correct




comments powered by Disqus
↑ Back to top | Tablatures and chords are parodies/interpretations of the original songs. You may use it for private study, scholarship, research or language learning purposes only