» » »

Mercy Tabs (ver.3)

Artists:  A B C D E F G H I J K L M N O P Q R S T U V W X Y Z # 

Mercy Tabs (ver.3)

Onerepublic
Rating:
0/5 (0 votes)

Hard to play? Try these video lessons and learn fast.
                (Intro)
e|---------------------------------------------------------------|
B|--19---19---19---17--17----16--16--16--------------------------|
G|16--16--------16---18--18--------16---16-----------------------|
D|---------------------------------------------------------------|
A|---------------------------------------------------------------|
E|---------------------------------------------------------------|

e|---------------------------------------------------------------|
B|--19---19---19---17--17----16--16--16--------------------------|
G|16--16--------16---18--18--------16---16-----------------------|
D|---------------------------------------------------------------|
A|---------------------------------------------------------------|
E|---------------------------------------------------------------|

e|---------------------------------------------------------------|
B|0-0-0-0-0-----------0-0-0-0--5-5-4-4---------------------------|
G|----------3-3-3-3--1-1-1-1--4-4-4-4-4--------------------------|
D|-4-4-4-4---4-4-4-4---------------------------------------------|
A|---------------------------------------------------------------|
E|---------------------------------------------------------------|

e|---------------------------------------------------------------|
B|0-0-0-0-0-----------0-0-0-0--5-5-4-7---------------------------|
G|----------3-3-3-3--1-1-1-1--4-4-4-4----------------------------|
D|-4-4-4-4---4-4-4-4---------------------------------------------|
A|---------------------------------------------------------------|
E|---------------------------------------------------------------|


e|---------------------------------------------------------------|
B|--19---19---19---17--17----16--16--16--------------------------|
G|16--16--------16---18--18--------16---16-----------------------|
D|---------------------------------------------------------------|
A|---------------------------------------------------------------|
E|---------------------------------------------------------------|

e|---------------------------------------------------------------|
B|--19---19---19---17--17----16--16--16--------------------------|
G|16--16--------16---18--18--------16---16-----------------------|
D|---------------------------------------------------------------|
A|---------------------------------------------------------------|
E|---------------------------------------------------------------|

e|---------------------------------------------------------------|
B|--19---19---19---17--17----16--16--16--------------------------|
G|16--16--------16---18--18--------16---16-----------------------|
D|---------------------------------------------------------------|
A|---------------------------------------------------------------|
E|---------------------------------------------------------------|

e|---------------------------------------------------------------|
B|--19---19---19---17--17----16--16--16--------------------------|
G|16--16--------16---18--18--------16---16-----------------------|
D|---------------------------------------------------------------|
A|---------------------------------------------------------------|
E|---------------------------------------------------------------|


| /  slide up
| \  slide down
| h  hammer-on
| p  pull-off
| ~  vibrato
| +  harmonic
| x  Mute note
            
Hard to play? Try these video lessons and learn fast. | Correct




comments powered by Disqus
↑ Back to top | Tablatures and chords are parodies/interpretations of the original songs. You may use it for private study, scholarship, research or language learning purposes only