» » »

Onerepublic, Secrets Tabs (ver.1)

Artists:  A B C D E F G H I J K L M N O P Q R S T U V W X Y Z # 

Secrets Tabs (ver.1)

Onerepublic Tabs
Rating:
0/5 (0 votes)
Secrets lessons Tabs too difficult? Try these video lessons and learn fast
                Tuning: Standard
Capo: 2
It's my first tab so if it's not good, don't blame me!!!


E|------------------------------------------------------------------|
B|------------------------------------------------------------------|
G|-----1---1-----------1---1-----------0---0-----------0---0--------|
D|---2---2---2---2---2---2---2---2---2---2---2---2---2---2---2---2--|
A|-3-----------3---3-----------3---2-----------2---2-----------2----|
E|------------------------------------------------------------------|

E|------------------------------------------------------------------|
B|------------------------------------------------------------------|
G|-----2---2-----------2---2-----------2---2------------------------|
D|---2---2---2---2---2---2---2---2---------------------3---3--------|
A|-0-----------0---0-----------0-----3---3---3---3---3---3---3---3--|
E|---------------------------------1-----------1---1-----------1----|

Verse 1
               C
I need another story 
                 Em
Something to get off my chest 
                   Am
My life gets kinda boring 
                      F
Need something that I can confess 

            C
Til' all my sleeves are stained red 
             Em
           Am
Come by it honestly I swear 
                  F
Thought you saw a wink, no 
                  
I've been on the brink, so 

Chorus        
                 C
Tell me what you want from here 
                    Em
Something that were like those years 
            Am
Sick of all the insincere 
                  F      
So I'm gonna give all my secrets away 
     C                        Em
This time, don't need another perfect line
                            Am 
Don't care if critics never jump in line 
               F      
I'm gonna give all my secrets away 


Verse 2

   C                   Em
My god, amazing how we got this far 
                        Am 
It's like we're chasing all those stars 
                    F
Who's driving shiny big black cars 
            
         C
And everyday I see the news 
                         
All the problems that we could solve 
            Em
And when a situation rises 
                       
Just write it into an album 
        Am
Singing straight, too cold 
                    F
I don't really like my flow, no, so 


Chorus 

        C
Tell me what you want from here 
                    Em
Something that were like those years 
            Am
Sick of all the insincere 
                  F      
So I'm gonna give all my secrets away 
     C                        Em
This time, don't need another perfect line
                            Am 
Don't care if critics never jump in line 
               F      
I'm gonna give all my secrets away 


E|------------------------------------------------------------------|
B|------------------------------------------------------------------|
G|-----1---1-----------1---1-----------0---0-----------0---0--------|
D|---2---2---2--------2---2-------2---2---2---2------2---2----------|
A|-3-----------3----3---------------2-----------2---2---------------|
E|------------------------------------------------------------------|

E|------------------------------------------------------------------|
B|------------------------------------------------------------------|
G|-----2---2-----------2---2-----------2---2-------2----------------|
D|---2---2---2-------2---2-------2----------------------3-----------|
A|-0-----------0---0-----------------3---3---3-------3--------------|
E|---------------------------------1-----------1-------1------------|


Bridge
      C                      Em
Oooh, got no reason, got not shame 
                    Am
Got no family I can blame 
                  F
Just don't let me disappear 
                  
I'mma tell you everything 


Chorus x2

        C
Tell me what you want from here 
                    Em
Something that were like those years 
            Am
Sick of all the insincere 
                  F      
So I'm gonna give all my secrets away 
     C                        Em
This time, don't need another perfect line
                            Am 
Don't care if critics never jump in line 
               F      
I'm gonna give all my secrets away 

E|------------------------------------------------------------------|
B|------------------------------------------------------------------|
G|-----1---1-----------1---1-----------0---0-----------0---0--------|
D|---2---2---2--------2---2-------2---2---2---2------2---2----------|
A|-3-----------3----3---------------2-----------2---2---------------|
E|------------------------------------------------------------------|

E|------------------------------------------------------------------|
B|------------------------------------------------------------------|
G|-----2---2-----------2---2-----------2---2-------2----------------|
D|---2---2---2-------2---2-------2----------------------3-----------|
A|-0-----------0---0-----------------3---3---3-------3--------------|
E|---------------------------------1-----------1-------1------------|

F
All my secrets away

E|------------------------------------------------------------------|
B|------------------------------------------------------------------|
G|-----1---1-----------1---1-----------0---0-----------0---0--------|
D|---2---2---2--------2---2-------2---2---2---2------2---2----------|
A|-3-----------3----3---------------2-----------2---2---------------|
E|------------------------------------------------------------------|

E|------------------------------------------------------------------|
B|------------------------------------------------------------------|
G|-----2---2-----------2---2-----------2---2-------2----------------|
D|---2---2---2-------2---2-------2----------------------3-----------|
A|-0-----------0---0-----------------3---3---3-------3--------------|
E|---------------------------------1-----------1-------1------------|

F              
All my secrets away...

End.
            
Submit corrections

comments powered by Disqus
↑ Back to top | Onerepublic Tabs for Secrets. Lyrics for acoustic guitar and electric guitar. Tablatures and chords are parodies/interpretations of the original songs. You may use it for private study, scholarship, research or language learning purposes only