>
 >
Mercy

Mercy Bass Tabs

Onerepublic - Mercy chords, tabs, tablatures, lyrics

Guitar lessons | Add/correct | Request | Top 50 tabs Artists:  A B C D E F G H I J K L M N O P Q R S T U V W X Y Z 0-9

Mercy Bass Tabs – Onerepublic

CD, Sheet music, Poster

Do you like Mercy? Share with your friends now
Bass TabsBass Tabs v2ChordsChords v2Chords v3Chords v4Ukulele
INTRO/VERSE
G-----------------------------------------------|
D-------------------------------99--------------|
A----------66666666/11-11-11-11---11-77777-99-7-|
E-77777777--------------------------------------|

G------------------------------------------------------|
D------------------------------------------------------|
A----------66666666/11-11-11-11-11-11-11-11-77777-99-7-|
E-77777777---------------------------------------------|

G-----------------------------------------------|
D-------------------------------99--------------|
A----------66666666/11-11-11-11---11-77777-99-7-|
E-77777777--------------------------------------|

G-------------------------------------------------|
D-------------------------------99----------------|
A-----------66666666/11-11-11-11---11-77777-99-7--|
E-777777/99---------------------------------------|


PRE CHORUS
G-------------|
D-------------|
A-------------|
E-77-77-77-77-|


CHORUS x4
G---------------------------------------------|
D---------------------------------------------|
A-----------------------------------7777/9999-|
E-44444444---7777-9-7-6-7---00000000----------|


VERSE 2
G---------------------------------------------|
D-------------------------------99------------|
A----------66666666/11-11-11-11---11-77777-9~-|
E-77777777------------------------------------|

G-----------------------------------------------|
D------------------------------99---------------|
A----------66666666/11-11-11-11---11-77777-9-9--|
E-7777777-7-------------------------------------|

G---------------------------------------------------|
D-------------------------------99--------------9---|
A----------66666666/11-11-11-11---11-77777-99-7---7-|
E-77777777------------------------------------------|

G---------------------------------------------------|
D-------------------------------99------------------|
A----------66666666/11-11-11-11---11-77777-99-14\\\-|
E-77777777------------------------------------------|

G------------------------------------------------|
D-------------------------------99---------------|
A-----------66666666/11-11-11-11---11-77777-99-7-|
E-777777/99--------------------------------------|


Repeat Pre Chorus and Chorus

BRIDGE x3
G--------------------------------------------|
D-66666-----99999--11-9-8--------------------|
A--------9-----------------77777----77777--9-|
E---------------------------------7----------|

Rest 3.01  3.06

FINAL CHORUS (11s not 1s)
G-----------------------|
D-----------------------|
A------7777------7777-\-|
E-0000------0000--------|

G------------------------------------------------|
D------------------------------------------------|
A----------------------------------77-99-1111-99-|
E-44444444---7777-9-7-6---00000000---------------|

G-----------------------------------------------------|
D-----------------------------------------------------|
A----------------------------7777-9999-11111111-99-77-|
E-44444444---77-99-77-66-77---------------------------|

G-----------------------------------------------|
D-----------------------------------------------|
A-------------------------------------7777-9999-|
E-44444444---7777-9-7-6-7---0000-2222-----------|

G-----------------------------------------------|
D-----------------------------------------------|
A--------------------------------7777-9999-7777-|
E-44444444---7777-9-7-6-7---0000----------------|

OUTRO
G--------------------------------|
D---------------------11-9-------|
A--------------------------9\-7~-|
E-7~---7/11~---/12~-----------0~-|





Comments


Popular Onerepublic tabs & chords
Tyrant Bass Tabs
All Fall Down 1 Chords
Feel Again 4 Chords
Feel Again 7 Chords
Secrets 7 Chords
Apologize 5 Tabs
Counting Stars 1 Tabs
Secrets 1 Tabs
Hearing Voices Ukulele
Passenger Ukulele


Song lyrics



↑ Back to top | Tablatures and chords are parodies/interpretations of the original songs. You may use it for private study, scholarship, research or language learning purposes only
© 2014 AZChords.com Contact us | Privacy policy | DMCA | Add/correct tabs | Request tabs | Top 50 tabs