» » »

Just For Tonight Tabs (ver.3)

Artists:  A B C D E F G H I J K L M N O P Q R S T U V W X Y Z # 

Just For Tonight Tabs (ver.3)

One Night Only
Rating:
0/5 (0 votes)

Hard to play? Try these video lessons and learn fast.
                Thought i'd take the chords from Just For Tonight and play around with it a bit. This is 
my first tab so i hope it all works

Capo on 3 (no capo if you want to play with the original)



Intro

D

E|-----2-----2-----2-----2--|-----3-----3-----2-----2--|
B|--3-----3-----3-----3-----|--3-----3-----3-----3-----|
G|-----2-----2-----2-----2--|-----2-----2-----2-----2--|
D|--0-----0-----0-----0-----|--0-----0-----0-----0-----|
A|--------------------------|--------------------------|
E|--------------------------|--------------------------|

Bm

E|-----2-----2-----2-----2--|-----3-----3-----3-----3--|
B|-----3-----3-----3-----3--|-----3-----3-----3-----3--|
G|--4-----4-----4-----4-----|--4-----4-----4-----4-----|
D|--4-----4-----4-----4-----|--4-----4-----4-----4-----|
A|--------------------------|--------------------------|
E|--------------------------|--------------------------|

G

E|--------------------------|-----3-----3-----2-----2--|
B|-----3-----3-----3-----3--|-----3-----3-----3-----3--|
G|-----0-----0-----0-----0--|--------------------------|
D|--------------------------|--0-----0-----0-----0-----|
A|--------------------------|--------------------------|
E|--3-----3-----3-----3-----|--------------------------|

A

E|-----0-----0-----0-----0--|-----0-----0-----0-----0--|
B|-----3-----3-----3-----3--|-----2-----2-----2-----2--|
G|-----2-----2-----2-----2--|-----2-----2-----2-----2--|
D|--------------------------|--------------------------|
A|--0-----0-----0-----0-----|--0-----0-----0-----0-----|
E|--------------------------|--------------------------|

(I wasn't sure about this last line)


Verse

  D

E|--------------------------0-----|----------------------3-----2---|
B|-----3-------------3------------|-----3----------3-----------3---|
G|------------2-------------------|----------2-----------2---------|
D|-----0--------------------------|-----0--------------------------|
A|--------------------------------|--------------------------------|
E|--------------------------------|--------------------------------|

 Way across the plains

  Bm

E|--------------------------0-----|----------------------3-----1---|
B|-----3-------------3------------|-----3----------3-----------0---|
G|------------4-------------------|----------4-----------4---------|
D|-----4--------------------------|-----4--------------------------|
A|--------------------------------|--------------------------------|
E|--------------------------------|--------------------------------|

 The lights spell out a code

G

E|--------------------------0-----|----------------------3-----2---|
B|-----3-------------3------------|-----3----------3-----------3---|
G|------------0-------------------|----------0-----------0---------|
D|-----0--------------------------|-----0--------------------------|
A|--------------------------------|--------------------------------|
E|--------------------------------|--------------------------------|

 No one knows where they take us

A

E|-----0--------------------------|--------------------------------|
B|-----------3-----2--------------|--------------------------------|
G|-----2-----2-----2--------------|--------------------------------|
D|--------------------------------|--------------------------------|
A|-----------------0--------------|--------------------------------|
E|--------------------------------|--------------------------------|

  But we'll search till we grow old

 D

E|--------------------------0-----|----------------------3-----2---|
B|-----3-------------3------------|-----3----------3-----------3---|
G|------------2-------------------|----------2-----------2---------|
D|-----0--------------------------|-----0--------------------------|
A|--------------------------------|--------------------------------|
E|--------------------------------|--------------------------------|

 All the paths they lead

  Bm

E|--------------------------0-----|----------------------3-----1---|
B|-----3-------------3------------|-----3----------3-----------0---|
G|------------4-------------------|----------4-----------4---------|
D|-----4--------------------------|-----4--------------------------|
A|--------------------------------|--------------------------------|
E|--------------------------------|--------------------------------|

 To the single solemn place

G

E|--------------------------0-----|----------------------3-----2---|
B|-----3-------------3------------|-----3----------3-----------3---|
G|------------0-------------------|----------0-----------0---------|
D|-----0--------------------------|-----0--------------------------|
A|--------------------------------|--------------------------------|
E|--------------------------------|--------------------------------|

 Then we'll stay for the weekend

A

E|---------0----0-----------------|--------------------------------|
B|---------3----2----0------------|--------------------------------|
G|---------2----2----4------------|--------------------------------|
D|-------------------2------------|--------------------------------|
A|----0---------------------------|--------------------------------|
E|--------------------------------|--------------------------------|

  And leave without a trace




Chorus

     D                      Bm         G

E|---2-----------------------2----|----3---------------------------|
B|---3-----------------------3----|----0---------------------------|
G|---2-----------------------4----|----0---------------------------|
D|---0-----------------------4----|----0---------------------------|
A|---0-----------------------2----|----2---------------------------|
E|---0-----------------------2----|----3---------------------------|

     Just for tonight               Just maybe we'll make it

     A                                A

E|---0----------------------------|---0----------------------------|
B|---2----------------------------|---2----------------------------|
G|---2----------------------------|---2----------------------------|
D|---2----------------------------|---2----------------------------|
A|---0----------------------------|---0----------------------------|
E|---0----------------------------|---0----------------------------|

     Sing like you want this          Sing like you want this
            
Hard to play? Try these video lessons and learn fast. | Correct




comments powered by Disqus
↑ Back to top | Tablatures and chords are parodies/interpretations of the original songs. You may use it for private study, scholarship, research or language learning purposes only